Cifra Club

In Safe Hands

Badly Drawn Boy

Cifrado: Principal (guitarra y guitarra eléctrica)
Selo Cifra Club: esta cifra foi revisada para atender aos critérios oficiais da nossa Equipe de Qualidade.
tono: G
Intro:
E|-----------------------------------------------------------------|
B|-------------0-------------0-------------0-------------0---------|
G|---------0-------0-----0-------0-----0-------0-----0-------0-----|  (4x)
D|-------5-------5-----5-------5-----5-------5-----5-------5-------|
A|---------------------------------3-----3-------------------------|
E|-----3-----3-------0-----0---------------------3-----3-----------|

Verso:
E|---------------------------0-------------------------------------|
B|-------------3-----------------3---------3-------------3---------|
G|---------4-------4-----4-------------4-------4-----4-------4-----|  (2x)
D|-------5-------5-----5-------5-----5-------5-----5-------5-------|
A|-----------------------------------------------------------------|
E|-----3-----3-------3-----3-------3-----3-------3-----3-----------|

             I:  "I'll leave you now - in safe hands
                  cool your soul - this love still stands"
            II:  "With wings take flight - a rose of white
                  and with that rose - the case is closed"
E|---------------------------0-------------------------------------|
B|-------------3-----------------3---------3-------------3---------|
G|---------4-------4-----4-------------4-------4-----4-------4-----|  (4x)
D|-------5-------5-----5-------5-----5-------5-----5-------5-------|
A|-----------------------------------------------------------------|
E|-----3-----3-------3-----3-------3-----3-------3-----3-----------|

             I:  "but failing that"
            II:  "but I need you now"
E|-----------------------------------------------------------------|
B|-------------0-------------0-------------0-------------0---------|
G|---------0-------0-----0-------0-----0-------0-----0-------0-----|
D|-------5-------5-----5-------5-----5-------5-----5-------5-------|
A|---------------------------------3-----3-------------------------|
E|-----3-----3-------0-----0---------------------3-----3-----------|

             I:  "just cool down"
            II:  "to help me somehow"
E|-------------0---------------------------------------------------|
B|---------3-------0---------0-------------1-------------0---------|
G|-------2-------2-------0-------0-----0-------0-----0-------0-----|
D|-----0-----0---------2-------2-----2-------2-----0-------0-------|
A|-------------------2-----2-------3-----3-------------------------|
E|-----------------------------------------------3-----3-----------|

             I:  "wouldn't you love to make it"
            II:  "and I'm scared to face it"
E|-----------------------------------------------------------------|
B|-------------0-------------0-------------0-------------0---------|
G|---------0-------0-----0-------0-----0-------0-----0-------0-----|
D|-------5-------5-----5-------5-----5-------5-----5-------5-------|
A|---------------------------------3-----3-------------------------|
E|-----3-----3-------0-----0---------------------3-----3-----------|

             I:  "is this real or am"
            II:  "this final kiss"
E|-------------0---------------------------------------------------|
B|---------3-------0---------0-------------1-------------1---------|
G|-------2-------2-------0-------0-----0-------0-----0-------0-----|
D|-----0-----0---------2-------2-----2-------2-----2-------2-------|
A|-------------------2-----2-------3-----3-------3-----3-----------|
E|-----------------------------------------------------------------|

             I:  "I just imagining?"
            II:  "but I know you'll remember it"
E|-----------------------------------------------------------------|
B|-------------0-------------0-------------1-----------------------|
G|---------0-------0-----0-------0-----0-------0-------------------|
D|-------2-------2-----0-------0-----2-------2---------------------|
A|-----2-----2---------------------3-----3-------------------------|
E|-------------------3-----3---------------------3-----------------|

Ponte:
                 "you gave your best to me"
E|-----------------------------------------------------------------|
B|-------------5-------------5-------------3-----------------------|
G|---------6-------6-----6-------6-----4-------4-----4-------4-----|
D|-------6-------6-----6-------6-----4-------4-----4-------4-------|
A|-----------------------------------------------------------------|
E|-----5-----5-------5-----5-------3-----3-------3------4----------|

                 "allow yourself to be..."
E|-----------------------------------------------------------------|
B|-------------5-------------5-------------3-------------3---------|
G|---------6-------6-----6-------6-----4-------4-----4-------4-----|
D|-------6-------6-----6-------6-----4-------4-----4-------4-------|
A|-----------------------------------------------------------------|
E|-----5-----5-------5-----5-------3-----3-------3-----3-----------|

                 "free"
E|-----------------------------------------------------------------|
B|-------------0-------------0-------------0-------------0---------|
G|---------0-------0-----0-------0-----0-------0-----0-------0-----|
D|-------5-------5-----5-------5-----5-------5-----5-------5-------|
A|---------------------------------3-----3-------------------------|
E|-----3-----3-------0-----0---------------------3-----3-----------|

Verso:
           III:  "and erase your memory" /
                 "a time for change" /
                 "to help me out"
E|-------------0---------------------------------------------------|
B|---------3-------0---------0-------------1-------------0---------|
G|-------2-------2-------0-------0-----0-------0-----0-------0-----|
D|-----0-----0---------2-------2-----2-------2-----0-------0-------|
A|-------------------2-----2-------3-----3-------------------------|
E|-----------------------------------------------3-----3-----------|

           III:  "well I'm sorry for failing" /
                 "but I need you now" /
                 "still I'm scared to face this"
E|-----------------------------------------------------------------|
B|-------------0-------------0-------------0-------------0---------|
G|---------0-------0-----0-------0-----0-------0-----0-------0-----|
D|-------5-------5-----5-------5-----5-------5-----5-------5-------|
A|---------------------------------3-----3-------------------------|
E|-----3-----3-------0-----0---------------------3-----3-----------|

           III:  "our final kiss"
E|-------------0---------------------------------------------------|
B|---------3-------0---------0-------------1-------------1---------|
G|-------2-------2-------0-------0-----0-------0-----0-------0-----|
D|-----0-----0---------2-------2-----2-------2-----2-------2-------|
A|-------------------2-----2-------3-----3-------3-----3-----------|
E|-----------------------------------------------------------------|

           III:  "but I know I'll remember it"
E|-----------------------------------------------------------------|
B|-------------0-------------0-------------1-----------------------|
G|---------0-------0-----0-------0-----0-------0-------------------|
D|-------2-------2-----0-------0-----2-------2---------------------|
A|-----2-----2---------------------3-----3-------------------------|
E|-------------------3-----3---------------------3-----------------|
Otros videos de esta canción
    82 exhibiciones
      • ½ Tono
      • A
      • Bb
      • B
      • C
      • Db
      • D
      • Eb
      • E
      • F
      • F#
      • G
      • Ab
    • Agregar a la lista

    Afinação da cifra

    Afinador online

      Ops (: Contenido disponible solo en portugués.
      OK