Cifra Club

Using Our Feet

Badly Drawn Boy

Cifrado: Principal (guitarra y guitarra eléctrica)
Selo Cifra Club: esta cifra foi revisada para atender aos critérios oficiais da nossa Equipe de Qualidade.
tono: F#
E|------------------------------------------------------|
B|------------------------------------------------------|
G|-------------------4-4---4----------------------------|
D|-------4-4---6-6----------6-4-------------------------|
A|6-6-4-6---4-6---4-6---4-6-----------------------------|
E|------------------------------------------------------|



[Chorus]

E|-----------------------------------------------------|
B|-----------------------------------------------------|
G|-----------------------------------------------------|
D|-8-6-------------------------------------------------|
A|-6-4-8-7-6-6-6-7-7-4---------------------------------|
E|-----6-5-4-4-4-5-5-----------------------------------|
Otros videos de esta canción
    7 exhibiciones
      • ½ Tono
      • A
      • Bb
      • B
      • C
      • Db
      • D
      • Eb
      • E
      • F
      • F#
      • G
      • Ab
    • Agregar a la lista

    Afinación de cifrado

    Afinador online

      OK