Cifra Club

Hallelujah

Bamboo

Cifrado: Principal (guitarra y guitarra eléctrica)
tono: A
astig to tama 2 lahat!!!!! paki rate!

intro:
  Dm
|--3---|
|--1---|
|--2---|(X4)
|------|
|------|
|------|

|-------------------------------------------------|
|-------------------------------------------------|
|-------------------------------------------------|(X2)
|-------------------------------------------------|                         
|------888-8/10--77-----55------------------------|
|--555--------------888-----77--3--5---------------|

VERSE 1 (light strruming lang)

anong balita sa radio at t.v......
  Am   F    C   G
|-5----1----3---3-----|
|-5----1----5---3-----|
|-5----2----5---4-----|
|-7----3----5---5-----|
|-7----3----3---5-----|
|-5----1--------3-----|

tapos
  Dm
|--3---|
|--1---|
|--2---|(X2)
|------|
|------|
|------|

Verse 2
bato bato sa langit tamaan wag magalit....
 Am    F    C   G
|-5----1----3---3-----|
|-5----1----5---3-----|
|-5----2----5---4-----|
|-7----3----5---5-----|
|-7----3----3---5-----|
|-5----1--------3-----|

pre-chorus:
may kasama ka kapatid kaibigan hanggat ako'y humihinga may pag asa pa!!...
  F   C   G   D   G
|-1---3---3---2---3-----|
|-1---5---3---3---3-----|
|-2---5---4---2---4-----|
|-3---5---5---0---5-----|
|-3---3---5-------5-----|
|-1-------3-------3-----|

Chorus:
ooooo....hallelu...hallelujah...sinong sawa...
Am    F    C   G    F    
|-5----1----3---3---1-----|
|-5----1----5---3---1-----|
|-5----2----5---4---2-----|(X2)
|-7----3----5---5---3-----|
|-7----3----3---5---3-----|
|-5----1--------3---1-----|

tapos:
  Em   G
|--0-------|
|--0-------|
|--0-------|
|--2---5---|
|--2---5---|
|--0---3---|

before yung rap eto yung chords:

Am    F    C   G
|-5----1----3---3-----|
|-5----1----5---3-----|
|-5----2----5---4-----|
|-7----3----5---5-----|
|-7----3----3---5-----|
|-5----1--------3-----|

rap:( no chords )

Dm
|--3---|
|--1---|
|--2---|(X2)
|------|
|------|
|------|

Verse 3:
ngayong gabi ako ang sundalo mo...
Am    F    C   G
|-5----1----3---3-----|
|-5----1----5---3-----|
|-5----2----5---4-----|
|-7----3----5---5-----|
|-7----3----3---5-----|
|-5----1--------3-----|


pre-chorus:
may kasama ka kapatid kaibigan hanggat ako'y humihinga may pag asa pa!!...
  F   C   G   D   G
|-1---3---3---2---3-----|
|-1---5---3---3---3-----|
|-2---5---4---2---4-----|
|-3---5---5---0---5-----|
|-3---3---5-------5-----|
|-1-------3-------3-----|

Chorus:
ooooo....hallelu...hallelujah...sinong sawa...
Am    F    C   G    F    
|-5----1----3---3---1-----|
|-5----1----5---3---1-----|
|-5----2----5---4---2-----|(X2)
|-7----3----5---5---3-----|
|-7----3----3---5---3-----|
|-5----1--------3---1-----|

guitar solo:(wah effect)
|--------------------------------------------------------------|
|----------8---------------8---------8---5---3---111-----------|
|-------5-----5--2------5------5--2--------------------222222--|
|----7---------------7-----------------------------------------|
|--------------------------------------------------------------|
|--------------------------------------------------------------|

|---------------------------------------17-12-17-12-17-12------|
|-5--8--10--12--10--13--15--13--15--13-------------------------|
|--------------------------------------------------------------|
|--------------------------------------------------------------|
|--------------------------------------------------------------|
|--------------------------------------------------------------|
  (medyo bilisan nyo sa part na to)
|--12-12-12-12-12-12-12-12------------------|
|-------------------------------------------|
|-------------------------------------------|
|-------------------------------------------|
|-------------------------------------------|
|-------------------------------------------|

fading chorus:
ooooo....hallelu...hallelujah!!!
Am    F    C   G    F    
|-5----1----3---3---1-----|
|-5----1----5---3---1-----|
|-5----2----5---4---2-----|(X3)
|-7----3----5---5---3-----|
|-7----3----3---5---3-----|
|-5----1--------3---1-----|

yun na!!!!!!!!!!!!!! ok ba?! paki rate pls.!!
00:00 / 00:00
Otros videos de esta canción
Repetir
Otros videos de esta canción
Compositor no encontrado.
36 vistas
    • ½ Tono
    • A
    • Bb
    • B
    • C
    • Db
    • D
    • Eb
    • E
    • F
    • F#
    • G
    • Ab
  • Agregar a la lista

    0 comentarios

    Ver todos los comentarios

    ¿Lograste tocar?

    0 Tocaron 0 Aún no

    ¡Graba un video tocando Hallelujah y envíanoslo!

    00:00 / 00:00
    OK