Cifra Club

Noypi

Bamboo

Cifrado: Principal (guitarra y guitarra eléctrica)
tono: G
Tabbed by: Carlo G. dela Cruz
Email: O*

Yeah!! This is my first tab

Tuning: Standard Tuning 

Intro:

e|------------------------------------------------------|
B|------------------------------------------------------|
G|------------------------------------------------------|
D|------------------------------------------------------| 2x
A|-55555555--77777777--10-10-10-10-10-10-10-10--55555555|
E|------------------------------------------------------|

Verse 1

e|------------------------------------------------------|
B|------------------------------------------------------|
G|------------------------------------------------------|
D|------------------------------------------------------|2x
A|-55555555--77777777--10-10-10-10-10-10-10-10--55555555|
E|------------------------------------------------------|

e|----------------------------------------------|
B|----------------------------------------------|
G|----------------------------------------------|
D|----------------------------------------------|
A|-55555555--77777777--10-10-10-10-10-10-10-10--|
E|----------------------------------------------|

e|----------------------------------|
B|----------------------------------|
G|----------------------------------|
D|------------------5-5-5-5-5-5-5-5-|
A|-5-5-5-5-5-5-5-5--5-5-5-5-5-5-5-5-|
E|-3-3-3-3-3-3-3-3--3-3-3-3-3-3-3 3-|

Chorus

e|-------------------------------------------------------------|
B|-------------------------------------------------------------|
G|-7-777-7-7777----------------5-5-5-5-5-5-5-5-----------------|
D|-7-777-7-7777--7-777-7-7777--5-5-5-5-5-5-5-5--5-5-5-5-5-5-5-5|2x
A|-5-555-5-5555--7-777-7-7777--3-3-3-3-3-3-3-3--5-5-5-5-5-5-5-5|
E|---------------5-555-5-5555-------------------3-3-3-3-3-3-3-3|

Before Verse2

e|------------------------------------------------------|
B|------------------------------------------------------|
G|------------------------------------------------------|
D|------------------------------------------------------| 2x
A|-55555555--77777777--10-10-10-10-10-10-10-10--55555555|
E|------------------------------------------------------|

Verse2

e|------------------------------------------------------|
B|------------------------------------------------------|
G|------------------------------------------------------|
D|------------------------------------------------------| 2x
A|-55555555--77777777--10-10-10-10-10-10-10-10--55555555|
E|------------------------------------------------------|

e|--------------------------------------------------------------|
B|--------------------------------------------------------------|
G|--------------------------------------------------------------|
D|----------------------------------------------5-5-5-5-5-5-5-5-|
A|-55555555--77777777--10-10-10-10-10-10-10-10--5-5-5-5-5-5-5-5-|
E|----------------------------------------------3-3-3-3-3-3-3-3-|

Chorus
e|--------------------------------------------------------------|
B|--------------------------------------------------------------|
G|-7-777-7-7777----------------5-5-5-5-5-5-5-5------------------|
D|-7-777-7-7777--7-777-7-7777--5-5-5-5-5-5-5-5--5-5-5-5-5-5-5-5-|2x
A|-5-555-5-5555--7-777-7-7777--3-3-3-3-3-3-3-3--5-5-5-5-5-5-5-5-|
E|---------------5-555-5-5555-------------------3-3-3-3-3-3-3-3-|

e|--------------------------------------------------------------------|
B|--------------------------------------------------------------------|
G|-7-7-7-7-7-7-7-7-------------------5-5-5-5-5-5-5-5------------------|
D|-7-7-7-7-7-7-7-7--7-7-7-7-7-7-7-7--5-5-5-5-5-5-5-5--5-5-5-5-5-5-5-5-|2x
A|-5-5-5-5-5-5-5-5--7-7-7-7-7-7-7-7--3-3-3-3-3-3-3-3--5-5-5-5-5-5-5-5-|
E|------------------5-5-5-5-5-5-5-5-------------------3-3-3-3-3-3-3-3-|

Bridge

e|---------------------------------------------------------------------|
B|---------------------------------------------------------------------|
G|-7-7-7-7\9-9-9\11-6-6-6-6-6-6-6-6--5-5-5-5\7-7-7\9--7-7-7--9-9-9--11-|
D|-7-7-7-7\9-9-9\11-6-6-6-6-6-6-6-6--5-5-5-5\7-7-7\9--7-7-7--9-9-9--11-|2x
A|-5-5-5-5\7-7-7\9--4-4-4-4-4-4-4-4--3-3-3-3\5-5-5\7--5-5-5--7-7-7--9--|
E|---------------------------------------------------------------------|

End bridge at e|---|
              B|---|
              G|-7-|
              D|-7-|
              A|-5-|
              E|---|


before verse3

e|------------------------------------------------------|
B|------------------------------------------------------|
G|------------------------------------------------------|
D|------------------------------------------------------| 2x
A|-55555555--77777777--10-10-10-10-10-10-10-10--55555555|
E|------------------------------------------------------|

verse3

e|---------------------------------------------|
B|---------------------------------------------|
G|---------------------------------------------|
D|---------------------------------------------|
A|-55555555--77777777--10-10-10-10-10-10-10-10-|
E|---------------------------------------------|

e|----------------------------------|
B|----------------------------------|
G|----------------------------------|
D|------------------5-5-5-5-5-5-5-5-|
A|-5-5-5-5-5-5-5-5--5-5-5-5-5-5-5-5-|
E|-3-3-3-3-3-3-3-3--3-3-3-3-3-3-3 3-|

Chorus
e|----------------------------------------------------------|
B|----------------------------------------------------------|
G|-7-----------------------5-5-5-5-5-5-5-5------------------|
D|-7-hold----7-777-7-7777--5-5-5-5-5-5-5-5--5-5-5-5-5-5-5-5-|
A|-5---------7-777-7-7777--3-3-3-3-3-3-3-3--5-5-5-5-5-5-5-5-|
E|-----------5-555-5-5555-------------------3-3-3-3-3-3-3-3-|

e|--------------------------------------------------------------|
B|--------------------------------------------------------------|
G|-7-777-7-7777----------------5-5-5-5-5-5-5-5------------------|
D|-7-777-7-7777--7-777-7-7777--5-5-5-5-5-5-5-5--5-5-5-5-5-5-5-5-|
A|-5-555-5-5555--7-777-7-7777--3-3-3-3-3-3-3-3--5-5-5-5-5-5-5-5-|
E|---------------5-555-5-5555-------------------3-3-3-3-3-3-3-3-|

e|-------------------------------------------------------------------|
B|-------------------------------------------------------------------|
G|-7-7-7-7-7-7-7-7-------------------5-5-5-5-5-5-5-5-----------------|
D|-7-7-7-7-7-7-7-7--7-7-7-7-7-7-7-7--5-5-5-5-5-5-5-5--5-5-5-5-5-5-5-5|2x
A|-5-5-5-5-5-5-5-5--7-7-7-7-7-7-7-7--3-3-3-3-3-3-3-3--5-5-5-5-5-5-5-5|
E|------------------5-5-5-5-5-5-5-5-------------------3-3-3-3-3-3-3-3|

Bridge

e|---------------------------------------------------------------------|
B|---------------------------------------------------------------------|
G|-7-7-7-7\9-9-9\11-6-6-6-6-6-6-6-6--5-5-5-5\7-7-7\9--7-7-7--9-9-9--11-|
D|-7-7-7-7\9-9-9\11-6-6-6-6-6-6-6-6--5-5-5-5\7-7-7\9--7-7-7--9-9-9--11-|2x
A|-5-5-5-5\7-7-7\9--4-4-4-4-4-4-4-4--3-3-3-3\5-5-5\7--5-5-5--7-7-7--9--|
E|---------------------------------------------------------------------|

End at e|---|
       B|---|
       G|-7-|
       D|-7-|
       A|-5-|
       E|---|

 \  slide down

  All Right!!! Thats all,   ENJOY :-)
00:00 / 00:00
Otros videos de esta canción
Repetir
Otros videos de esta canción
Compositor no encontrado.
16 vistas
    • ½ Tono
    • A
    • Bb
    • B
    • C
    • Db
    • D
    • Eb
    • E
    • F
    • F#
    • G
    • Ab
  • Agregar a la lista

    0 comentarios

    Ver todos los comentarios

    ¿Lograste tocar?

    0 Tocaron 0 Aún no

    ¡Graba un video tocando Noypi y envíanoslo!

    00:00 / 00:00
    OK