Cifra Club

Lambada Chamega

Banda da Loirinha

Cifrado: Principal (guitarra y guitarra eléctrica)
tono: C
 e G
 INTRO: ( G  C )
 
      G                         C
 G||-------------------------------------------------------||
 D||--------------------------------------------0-2h0-2h0--||   2
 A||--------------------------2-3-3-3-3-1-2-3-3------------|| Vezes
 E||--3-3-3-3-1-2-3-3-3-5-3-5------------------------------||

 G||-------------------------------------------------------||
 D||--------------------------------------------0-2h0-2h0--||
 A||------------------------1-2-3-3-3-3-1-2-3-3------------||
 E||--3-3-3-3-1-2-3-3-3-4-5--------------------------------||


 (G C)
 E essa é pra chamegar com a Banda da Loirinha
 A história é a seguinte galera. No Pará as mulheres só chamegam quando chove
 E como todo dia chove, vem com a Loirinha chamegar

         |         G                           C                                 G
 Cantor  | Eu vim aqui te proucurar eu te encontrei não vou deixar você fugir de mim
   1     |                           F    C                       [Solo 01]
         | Eu tô afim de contigo namorar     só com você quero dançar

         |           D                           G                                      D
 Cantor  | Eu também tô pensando assim me apaixonei com teu jeitinho e teu modo de me olhar
   2     |                 C   G                      [Solo 02]
         | Já me fez arrepiar     e com você quero dança

         |           G                          C                                 G
 Cantor  | Já que é assim chega pra cá me dê a mão vamos dançar com a loirinha chamegar
   1     |                           F    C                     [Solo 01]
         | Suor descer e poeira levantar     mas não pare de dançar
        
         |           D                            G                                         D
 Cantor  | Se me quiser, vou te querer, se me agradar, vou te agradar, mas não queira me enganar
   2     |                        C    G                       [Solo 02]
         | Já escolhi pra ser meu par     vem com a loirinha vem...

         |           G                          C                                        G
         | C me escolheu, se eu passiei, se c entregar, já me entreguei meu amor eu te darei
         |                     F    C                       G
 Cantor  | Acho que vou me amarrar      só com você quero ficar
   1     |                       C                             G
         | Pra chamegar, pra namorar, pra se amarrar, para se amar
         |                     F    C                    [Solo 01]
         | Com a loirinha chamegar      nunca para de dançar

         |         D                          G                             D
         | Para dançar, pra chamegar, pra namorar, pra se amarrar, para se amar
         |                     C    G                   D
 Cantor  | Com a loirinha chamegar     nunca pare de dançar
   2     |                       G                          D
         | Para dançar, pra chamegar, pra namorar, para se amar
         |                     C    G                    [Solo Final]
         | Com a loirinha chamegar     nunca pare de dançar


          Final
       G||-------------------------------------------------------------||
       D||------------------------------------------------------5-6-7--||
       A||--5-5-5-5-3-4-5-5-5-5-3-4-5-5-5-5-3-4-5-5-5-5-7-5-7-5--------||
       E||-------------------------------------------------------------||


    *  * ************************************************* *  *

            G|-F-Em   G|-G#-Am               
       G||--------------------||
  SOLO D||--5-3-2----5-6--7---||
   01  A||--------------------||
       E||--------------------||

            D                         G                         C            D
       G||----------------------------------------------------4-5-5--5-3-4-5-7--||
  SOLO D||--------------------------4-5-5-5-5-3-4-5-5-5-7-5-7-------------------||
   02  A||--5-5-5-5-3-4-5-5-5-7-5-7---------------------------------------------||
       E||----------------------------------------------------------------------||
00:00 / 00:00
Otros videos de esta canción
Repetir
Otros videos de esta canción
Compositor no encontrado.
Colaboración y revisión:
  • Vagner Silva
58 vistas
    • ½ Tono
    • A
    • Bb
    • B
    • C
    • Db
    • D
    • Eb
    • E
    • F
    • F#
    • G
    • Ab
  • Agregar a la lista

    0 comentarios

    Ver todos los comentarios

    ¿Lograste tocar?

    0 Tocaron 1 Aún no

    ¡Graba un video tocando Lambada Chamega y envíanoslo!

    00:00 / 00:00
    OK