Cifra Club

Largatixa

Banda da Loirinha

Cifrado: Principal (guitarra y guitarra eléctrica)
tono: C
  INTRO: (Am F C G) 
 
  e||-----------------------------------------------------------| 
  B||-----------------------------------------------------------| 
  G||--------5-5-----5-5----------------------------------------| 
  D||--5h7-7-----7-7-----7-7-5-7~-------5-5---5-5-5--7~-5---5---| 
  A||-------------------------------5h7-----7-------------7-----| 
  E||-----------------------------------------------------------| 
 
  |-----------------------------------------------9-8---6---------|| 
  |-----------------------------------8-8---8-8-8-----9---9-8-----|| 
  |--------5-5-----5-5------------7h9-----9-------------------10--|| Falta o finalzinho! 
  |--5h7-7-----7-7-----7-7-5-7~-----------------------------------|| 
  |---------------------------------------------------------------|| 
  |---------------------------------------------------------------|| 
 
   Am          F          C       G 
      Estou querendo essa gata (fiquei vidrado nela) 
   Am          F            C      G 
      é a mais linda que já vi (eu vou colar na dela) 
   Am            F             C         G 
      Se o vento soprar seus cabelos (da pra sentir o cheiro) 
   Am          F           C    G 
      e da pra ver em seu olhar que pode rolar 
 
    Am                      F 
    Me hipnotizou com o seu jeito sedutor 
    C                      G 
    me deixou maluco tô doidinho de amor 
    Am                      F 
    É uma coisa linda nunca vi tão sensual 
       C                       G 
    eu vou cair em cima, por favor não leve a mal, não, não não 

   Am                         F                      C               
      Eu vou te espremer na parede te chamar de largatixa amor       
       G                                                             
      (eu vou te deixar afim)                                        2x 
   Am                        F                        C              
      Eu vou te dar beijo de lingua até o meu cair da boca amor      
       G                                                             
      (eu vou te deixar afim)                                        
 
   Am                F            C      G 
      Afim, afim de mim, afim de mimmm...   afim do rei aqui 
   Am                F            C      G 
      Afim, afim de mim, afim de mimmm...   afim do rei aqui  
    
      (Intro) 
      (Repete Tudo) 
      (Intro)
00:00 / 00:00
Otros videos de esta canción
Repetir
Otros videos de esta canción
Compositor no encontrado.
76 vistas
    • ½ Tono
    • A
    • Bb
    • B
    • C
    • Db
    • D
    • Eb
    • E
    • F
    • F#
    • G
    • Ab
  • Agregar a la lista

    0 comentarios

    Ver todos los comentarios
    00:00 / 00:00
    OK