Cifra Club

Hey Nana

Banda do Mar

Chords: Principal (acoustic and electric guitars)
tone: Ab
Intro: Cm Ab G (2x)

E|--------------------------------------------------------------------|
B|--------------------------------------------------------------------|
G|-----------------1--1--0--------------------------------------------| 2x
D|-----------1--3-----------3--1--0-----------------------------------|
A|--3--3-3---------------------------------------------1-----1--2-----|
E|-----------------------------------3--3-3--1--3--3------3-----------|

Cm                         Gm         Gm F#m
Hey, Nana, eu vim aqui pra te falar
Fm                          Eb   G
E dizer o tanto que eu não pude dar

Cm                        Gm          Gm F#m
Hey, Nana, você nunca fez mal nenhum
Fm                       Eb      G
Mas eu sei o tanto que ficou pra trás

Cm
Se você não quiser
Eu vou te convencer
      Eb
Se você não quiser
Eu vou te convencer

Fm
Lá em casa continua
Cm
Todo mundo bem
  Fm
E todos os problemas
       Cm
Se antecipam

Fm
Se você não me quiser
        G
Eu faço tudo o que puder
Tudo mundo sabe

Cm                         Gm        Gm F#m
Hey, Nana, eu vim aqui pra te falar
Fm                          Eb   G
E dizer o tanto que eu não pude dar

Cm                         Gm        Gm F#m
Hey, Nana, você nunca fez mal nenhum
Fm                       Eb      G
Mas eu sei o tanto que ficou pra trás

Cm
Se você não quiser
Eu vou te convencer
      Eb
Se você não quiser
Eu vou te convencer

Fm
Lá em casa continua
Cm
Todo mundo bem
  Fm
E todos os problemas
       Cm
Se antecipam

Fm
Se você não me quiser
        G
Eu faço tudo o que puder
Tudo mundo sabe

Cm
Hey Nanaaa

Solo: Cm Gm Gm F#m Fm Cm G (2x)

E|----------------------5----11-10-8-6-8-----------------------------------------------------------|
B|--------------6---8-6---8---------------8---6-8--6-8--6-8-9-8-6----------------------------------|
G|-------5-8-7----------------------------------------------------8-7---7-8-7-6----8-10~-10~-------| 
D|---5-8-------------------------------------------------------------------------------------------|
A|-------------------------------------------------------------------------------------------------|
E|-------------------------------------------------------------------------------------------------|

E|---------11-11-11-13-11--14-14-14-14----|
B|-11-13----------------------------------|
G|----------------------------------------| 
D|----------------------------------------|
A|----------------------------------------|
E|----------------------------------------|

Cm
Se você não quiser
Eu vou te convencer
      Eb
Se você não quiser
Eu vou te convencer

Fm
Lá em casa continua
Cm
Todo mundo bem
  Fm
E todos os problemas
       Cm
Se antecipam

Fm
Se você não me quiser
        G
Eu faço tudo o que puder

Tudo mundo sabe
Cm      Ab G   Cm Ab G Cm
Heyyyyyy
00:00 / 00:00
Other videos of this song
Repeat
Other videos of this song
Composed by Marcelo Camelo
Collaboration and Review:
781 views
    • ½ Tone
    • A
    • Bb
    • B
    • C
    • Db
    • D
    • Eb
    • E
    • F
    • F#
    • G
    • Ab
  • Add to list
    00:00 / 00:00
    OK