Cifra Club

Mia

Banda do Mar

Cifrado: Principal (guitarra y guitarra eléctrica)
tono: C
Verso I:

A    G         A
Antes do sol nascer
      G            A
Ela acorda sem querer
E quando o sol se põe
Ela sente sono
Conheço esse bicho
Dorme doze horas
Só quer saber de manha
Exige o meu carinho
                     E7
Mas tem que ser bem forte

Refrão:

A    G      A
Mia, mia garota
     G       A
Não adianta nada
     G         A
De dia tem postura
      G            A
Mas quando é madrugada
            D7
Eu domo a criatura
             E7
Conheço essa gata
(Sou dono dela)


Repete Verso I:

Refrão: (2x)



F#m7        Bm7
    Quis te convencer
F#m7       Bm7
    Carreguei você
    D                      A
Por todos os lugares desse mundo
F#m7       Bm7
    Dei o meu melhor
F#m7        Bm7
    Não te admirou
   D7M                      
O teu olhar abriga o universo



Refrão: (2x)


E|--12-10-12-10-------12-10-12-10-----------|
B|-------------13-10--------------10--------|
G|------------------------------------------|
D|------------------------------------------|
A|------------------------------------------|
E|------------------------------------------|

E|----------10-12-14-15-14-15-14-15-14-12---|
B|-10-12-14---------------------------------|
G|------------------------------------------|
D|------------------------------------------|
A|------------------------------------------|
E|------------------------------------------|
00:00 / 00:00
Otros videos de esta canción
Repetir
Otros videos de esta canción
Composición de Mallu Magalhães
Colaboración y revisión:
  • Thaina Santos
  • Giovanna Vieira
165 vistas
    • ½ Tono
    • A
    • Bb
    • B
    • C
    • Db
    • D
    • Eb
    • E
    • F
    • F#
    • G
    • Ab
  • Agregar a la lista

    0 comentarios

    Ver todos los comentarios

    ¿Lograste tocar?

    6 Tocaron 0 Aún no

    ¡Graba un video tocando Mia y envíanoslo!

    00:00 / 00:00
    OK