Cifra Club

Pode Ser

Banda do Mar

Cifrado: Principal (guitarra y guitarra eléctrica)
tono: Dm
[Primeira Parte]

Dm           Am
 Pode ser o seu cabelo
Dm            Am
 Ou o jeito que você anda
Dm           Am
 Pode ser o seu apelo
Gm             C7
 Pelos burros de miranda

E|----------------------------------------------------|
B|----------------------------------------------------|
G|------------------------------------------------2---|
D|-3---3-2-0-----0---0---0---------------3-2--3-5---3-|
A|---5-------3-0-------0---3--0-----0--5--------------|
E|------------------------------3-1-------------------|

Dm           Am
 Pode ser o sol da tarde
Dm                Am
 E essas coisas que ele trás
Dm           Am
 Dada sua intensidade
Gm          C7           Bb5 C5
Ou a calma do meu mundo

[Refrão]

E|----------------------------------------------------|
B|----------------------------------------------------|
G|-2/3-3--------0-2-----------------------------------|
D|-------3----3---------------------------------------|
A|------------------3----3/5-5-1----0---3/8-8---------|
E|------------------------------------3---------------|

E|------------------------------6-10-6-8-6------------|
B|----------------------------6------------10-8-6-----|
G|-2/3-3----------2/5-5---5/7-------------------------|
D|-------3----3-5-------------------------------------|
A|----------------------------------------------------|
E|----------------------------------------------------|

E|----------------------------------------------------|
B|-5/6-6--------6-8-6-5-------------------------------|
G|-------7----7---------7-5---------------------------|
D|----------------------------------------------------|
A|----------------------------------------------------|
E|----------------------------------------------------|

F                Bb
 Um dia eu vou ficar bem
F              Bb
 Só pra te querer 
    
Mais
Dm           Bb
 Onde quer que eu 
         
Ande bem
Dm7                Gm     C7
 Domingo é pra te dar paz

[Segunda Parte]

Dm           Am
 Pode ser o seu tamanho
Dm            Am
 Ou o jeito que você erra
Dm              Am
 No momento em que eu te ganho
Gm             C7
 Ou no barco que te leva

Dm        Am
 Pode ser o que você quer
Dm            Am
 Ou o que eu tenho pra te dar
Dm           Am
 Uma vida inteira pra viver
Gm           C7               Bb5  C5
 Ou um só segundo pra lembrar

[Refrão]

E|----------------------------------------------------|
B|----------------------------------------------------|
G|-2/3-3--------0-2-----------------------------------|
D|-------3----3---------------------------------------|
A|------------------3----3/5-5-1----0---3/8-8---------|
E|------------------------------------3---------------|

E|------------------------------6-10-6-8-6------------|
B|----------------------------6------------10-8-6-----|
G|-2/3-3----------2/5-5---5/7-------------------------|
D|-------3----3-5-------------------------------------|
A|----------------------------------------------------|
E|----------------------------------------------------|

E|----------------------------------------------------|
B|-5/6-6--------6-8-6-5-------------------------------|
G|-------7----7---------7-5---------------------------|
D|----------------------------------------------------|
A|----------------------------------------------------|
E|----------------------------------------------------|

F                 Bb
 Um dia eu vou ficar bem
F              Bb
 Só pra te querer 
    
Mais
Dm           Bb
 Onde quer que eu 
         
Ande bem
Dm7                Gm     C7
 Domingo é pra te dar paz

[Solo] Dm  C  Am  
       Dm  C  Am 
       Dm  C  Am 
       Gm  
       Dm  C  Am
       Dm  C  Am 
       Dm  C  Am 
       Gm  

E|-------8--------------------------------------------|
B|-10-------11-10-----10--8------------------------10-|
G|----10----------10---------7----7-5-7-7/9-7-10-9----|
D|----------------------------------------------------|
A|----------------------------------------------------|
E|----------------------------------------------------|
    
E|-------13-12-10--------------10---------------------|
B|-8--------------13-10-10--------13-10---------------|
G|--------------------------------------12-10---------|
D|----------------------------------------------------|
A|----------------------------------------------------|
E|----------------------------------------------------|

E|13-12-10-----------------------------13-12-10-------|
B|---------13-10-10---10-11-10-11-13------------13-10-|
G|----------------------------------------------------|
D|----------------------------------------------------|
A|----------------------------------------------------|
E|----------------------------------------------------|

E|----10----------------------------------------------|
B|-10----13-10----------------------------------------|
G|-------------12-10---10-12-10-12/14--12-14/15-------|
D|----------------------------------------------------|
A|----------------------------------------------------|
E|----------------------------------------------------|

E|----------------------------------------------------|
B|----------------------------------------------------|
G|-14---17-15-14-10-----------------------------------|
D|----------------------------------------------------|
A|----------------------------------------------------|
E|----------------------------------------------------|

[Refrão]

E|----------------------------------------------------|
B|----------------------------------------------------|
G|-2/3-3--------0-2-----------------------------------|
D|-------3----3---------------------------------------|
A|------------------3----3/5-5-1----0---3/8-8---------|
E|------------------------------------3---------------|

E|------------------------------6-10-6-8-6------------|
B|----------------------------6------------10-8-6-----|
G|-2/3-3----------2/5-5---5/7-------------------------|
D|-------3----3-5-------------------------------------|
A|----------------------------------------------------|
E|----------------------------------------------------|

E|----------------------------------------------------|
B|-5/6-6--------6-8-6-5-------------------------------|
G|-------7----7---------7-5---------------------------|
D|----------------------------------------------------|
A|----------------------------------------------------|
E|----------------------------------------------------|

F                 Bb
 Um dia eu vou ficar bem
F              Bb
 Só pra te querer 
    
Mais
Dm           Bb
 Onde quer que eu 
         
Ande bem
Dm7                Gm     C7
 Domingo é pra te dar paz
00:00 / 00:00
Otros videos de esta canción
Repetir
Otros videos de esta canción
Composición de Marcelo Camelo
1.248 vistas
    • ½ Tono
    • Am
    • Bbm
    • Bm
    • Cm
    • C#m
    • Dm
    • Ebm
    • Em
    • Fm
    • F#m
    • Gm
    • G#m
  • Agregar a la lista

    0 comentarios

    Ver todos los comentarios

    ¿Lograste tocar?

    50 Tocaron 7 Aún no

    ¡Graba un video tocando Pode Ser y envíanoslo!

    00:00 / 00:00
    OK