Cifra Club

Solar

Banda do Mar

Cifrado: Principal (guitarra y guitarra eléctrica)
tono: G
Intro: 
   G      Bm    Em            G     Bm     Am
E|----------------------------------------------------|
B|--2/5----------------------3------------------------|
G|-------4--2--4--2-4p2-4-------4/2---2p0-2/4/2p0-----|
D|------------------------------------------------2---|
A|----------------------------------------------------|
E|----------------------------------------------------|

   G      Bm    Em            G     Bm     Am
E|----------------------------------------------------------|
B|--2/5----------------------3------------------------------|
G|-------4--2--4--2-4p2-4-------4/2---2p0-2/4/2p0-----------|
D|------------------------------------------------2---2h0---|
A|----------------------------------------------------------|
E|----------------------------------------------------------|

G     Bm         Em
  Eu vivia sempre preocupado
G         Bm     Am
  Com a situação solar
G         Bm        Em
  Se eu estou aqui é por acaso
G           Bm      Am
  E pra te ver passsar

G             Bm    Em
  Céu azul, a cor de meio-dia
G       Bm      Am
  A hora é de sair
G         Bm       Em
  Se eu estou em sua companhia
G          Bm    Am
  É pra me distrair

Bm               Em
  Vou caminhando pela estrada
E|------------------|
B|-------3----------|
G|--2/4-----4p2-4---|
D|------------------|
A|------------------|
E|------------------|


Bm               Em
  Eu peço para o coração chegar
E|------------------|
B|-------3----------|
G|--2/4-----4/3/2---|
D|------------------|
A|------------------|
E|------------------|

Am
  Não tenho mais a hora errada
D
  Nem sei onde vai dar
E|------3--------------------|
B|-------------3p0------3----|
G|--2h4----2h4------2h4---0--|
D|---------------------------|
A|---------------------------|
E|---------------------------|

G     Bm      Em
   Eu tô contigo, irmão
          G Bm      Am
  E não tenho mais medo do mundo
G     Bm     Em
  Eu tô contigo, irmão
          G  Bm      Am
  E não tenho mais medo do mundo


 SOLO - A base repete introdução ( G,  Bm,  Em,  G,  Bm,  Am ) 4x
E|-------------------------------------------------------------------------------------------------|
B|--3--3/5-0--1-1/3--------------------------------------------------------------------------------|
G|-------------------2p0--------------------------5-4-7-----7-5-4----4--4---2--2---0--0---2--2-----|
D|-----------------------4-2-0-0--5-0-4-0-5-0-4-5-------4-5--------5--5---4--4---2--2---4--4-------|
A|-------------------------------------------------------------------------------------------------|
E|-------------------------------------------------------------------------------------------------|

E|----------------------------------------------------------------------------------|
B|----3-------3---0------------------0-0-------------0-0----------------------------|
G|--------4----------------------4---------4-----0---------0------4-5/7-9-4--4-7-9--|
D|--5---5---5---5---555555555--5---5-----5-----2---2-----2------5-------------------|
A|----------------------------------------------------------------------------------|
E|----------------------------------------------------------------------------------|

Bm               Em
  Vou caminhando pela estrada
Bm               Em
  Eu peço para o coração chegar
Am
  Não tenho mais a hora errada
D
  Nem sei onde vai dar

G     Bm      Em
   Eu tô contigo, irmão
          G Bm      Am
  E não tenho mais medo do mundo
G     Bm     Em
  Eu tô contigo, irmão
          G  Bm      Am
  E não tenho mais medo do mundo
00:00 / 00:00
Otros videos de esta canción
Repetir
Otros videos de esta canción
Composición de Marcelo Camelo
Colaboración y revisión:
  • Gabriel Lucas
  • Laura Parisi
170 vistas
    • ½ Tono
    • A
    • Bb
    • B
    • C
    • Db
    • D
    • Eb
    • E
    • F
    • F#
    • G
    • Ab
  • Agregar a la lista

    0 comentarios

    Ver todos los comentarios

    ¿Lograste tocar?

    7 Tocaron 0 Aún no

    ¡Graba un video tocando Solar y envíanoslo!

    00:00 / 00:00
    OK