Cifra Club

Juro part.Mabili

Banda Ego

Cifrado: Principal (guitarra y guitarra eléctrica)
tono: G
Intro 2x: C9  G/B

       C9                   G/B
E|--------------------|--------------x-----|
B|---------3----------|---------3----x-----|
G|-----0-------0x-0---|-----0-------0x-0---|
D|---0--------------0-|---0----------x---0-|
A|-3-----3---3--------|-2-----2---2--x-----|
E|--------------------|--------------x-----|


Primeira Parte:


      C9                    G/B                 Em7                    D11
E|--------------x-----|--------------x-----|---------3-----------|---------2-----------|
B|---------3----x-----|---------3----x-----|-----3---------------|-----3---------------|
G|-----0-------0x-0---|-----0-------0x-0---|---0---------0---0---|---0---------0---0---|
D|---0----------x---0-|---0----------x---0-|-2-----2---0---0---0-|-0-----0---0---0---0-|
A|-3-----3---3--x-----|-2-----2---2--x-----|---------------------|---------------------|
E|--------------x-----|--------------x-----|---------------------|---------------------|


Segunda Parte:


        C9                 G/B                Em7
E|-------------x----|-------------x----|--------3----------|
B|--------3----x----|--------3----x----|----3--------------|
G|----0-------0x-0--|----0-------0x-0--|--0---------0---0--|
D|--0----------x---0|--0----------x---0|2-----2---0---0---0|
A|3-----3---3--x----|2-----2---2--x----|-------------------|
E|-------------x----|-------------x----|-------------------|


Variação do D11 na segunda parte:


        D11                 D11
E|--------2----------|--------5----------|
B|----3--------------|----3--------------|
G|--0---------0---0--|--0---------0---0--|
D|0-----0---0---0---0|0-----0---0---0---0|
A|-------------------|-------------------|
E|-------------------|-------------------|



Refrão:


        C9                   Em7         D11
E|----3x--3-----3x--3--|----3x--3--|----5x--5--|
B|----3x--3-----3x--3--|----3x--3--|----3x--3--|
G|----0x--0-----0x--0--|----0x--0--|----0x--0--|
D|-----x---------x-----|-2---x--2--|-0---x--0--|
A|-3---x--3---3--x--3--|-----x-----|-----x-----|
E|-----x---------x-----|-----x-----|-----x-----|



Primeira Parte:

 C9
Se eu te convidar pra fugir será que você aceita
   G/B
Se eu viver pra te fazer sorrir na vibe mais perfeita
 Em7
Só fechar os olhos e enxergar um futuro, só nós dois
   D11
Arruma tuas coisas, o depois a gente deixa pra depois

Segunda parte:

   C9
Se eu pedir permissão pro teu pai eu sei que ele não vai deixar
       G/B
Se quiser vir comigo viver o pra sempre sai antes dele acordar
     Em7
Não te prometo joia, luxo, carro do ano, não
     D11
Mas te prometo todo o amor que tenho em meu coração

Refrão:

 C9
Juro, eu te faço feliz, eu te faço mulher, eu te faço princesa
   Em7                             D11
Eu entro com todo o meu amor, você entra com toda a sua beleza
 C9
Juro que vamos casar na beira do mar, vendo o amanhecer
       Em7                       D11
Que o meu pra sempre seja com você
          C9
Só com você

Em7  D11
C9  Em7  D11  C9


Repete Primeira Parte:

 C9
Se eu te convidar pra fugir será que você aceita
   G/B
Se eu viver pra te fazer sorrir na vibe mais perfeita
 Em7
Só fechar os olhos e enxergar um futuro, só nós dois
   D11
Arruma tuas coisas, o depois a gente deixa pra depois

Repete Segunda parte:

   C9
Se eu pedir permissão pro teu pai eu sei que ele não vai deixar
       G/B
Se quiser vir comigo viver o pra sempre sai antes dele acordar
     Em7
Não te prometo joia, luxo, carro do ano, não
     D11
Mas te prometo todo o amor que tenho em meu coração

Refrão:

 C9
Juro, eu te faço feliz, eu te faço mulher, eu te faço princesa
   Em7                             D11
Eu entro com todo o meu amor, você entra com toda a sua beleza
 C9
Juro que vamos casar na beira do mar, vendo o amanhecer
       Em7                       D11
Que o meu pra sempre seja com você
          C9
Só com você

                C9
Aham! Só com você e ninguém mais
Porque quando é pra ser, deixa ir que o vento traz
                   Em7
Gata quanto tempo faz? Óh, eu nem sei mais
                 D11
Avisa pros teus pais que agora as coisas não serão iguais
   C9
e vá, faz as malas que eu tô indo te buscar (é)
Garota eu tenho um plano e umas notas pra gastar
Em7
   Ouvindo um som, brindando na sala de estar
      D11
Vivendo aquele sonho de uma casa de frente pro mar
C9
  Com hidromassagem e frigobar, daquele jeito
Pra relaxar, com tudo que tem direito
      Em7
Mas agora a certeza que eu te dou,
                 D11
Além de um sobrenome e um cobertor
É um canto no meu peito
      C9
Então,  eu não garanto o futuro, porque a vida é uma só
Se joga que eu seguro
               Em7
Você tem, você é tudo aquilo que eu procuro em alguém (oh, yeah!)
D11
   É por essas, entre outras, que eu te juro

Refrão:

 C9
Juro, eu te faço feliz, eu te faço mulher, eu te faço princesa
   Em7                             D11
Eu entro com todo o meu amor, você entra com toda a sua beleza
 C9
Juro que vamos casar na beira do mar, vendo o amanhecer
       Em7                       D11
Que o meu pra sempre seja com você
          C9
Só com você

Em7  D11
C9  Em7  D11
C9
00:00 / 00:00
Otros videos de esta canción
Repetir
Otros videos de esta canción
Compositor no encontrado.
Colaboración y revisión:
  • Emily Gonçalves
33 vistas
    • ½ Tono
    • A
    • Bb
    • B
    • C
    • Db
    • D
    • Eb
    • E
    • F
    • F#
    • G
    • Ab
  • Agregar a la lista

    0 comentarios

    Ver todos los comentarios

    ¿Lograste tocar?

    0 Tocaron 0 Aún no

    ¡Graba un video tocando Juro part.Mabili y envíanoslo!

    00:00 / 00:00
    OK