Cifra Club

Juro (part. Mabili)

Banda Ego

Cifrado: Principal (guitarra y guitarra eléctrica)
tono: G
[Intro] C9  G/B  C9  G/B

   C9
E|------------------------------------------|
B|---------3------------------3-------------|
G|-----0-------0---0------0-------0---0-----|
D|---0---0-------0------0---0-------0-------|
A|-3---------3--------3---------3-----------|
E|------------------------------------------|

   G/B
E|------------------------------------------|
B|---------3------------------3-------------|
G|-----0-------0---0------0-------0---0-----|
D|---0---0-------0------0---0-------0-------|
A|-2---------2--------2---------2-----------|
E|------------------------------------------|

   C9
E|------------------------------------------|
B|---------3------------------3-------------|
G|-----0-------0---0------0-------0---0-----|
D|---0---0-------0------0---0-------0-------|
A|-3---------3--------3---------3-----------|
E|------------------------------------------|

   G/B
E|------------------------------------------|
B|---------3------------------3-------------|
G|-----0-------0---0------0-------0---0-----|
D|---0---0-------0------0---0-------0-------|
A|-2---------2--------2---------2-----------|
E|------------------------------------------|

[Primeira Parte]

   C9
E|------------------------------------------|
B|---------3------------------3-------------|
G|-----0-------0---0------0-------0---0-----|
D|---0---0-------0------0---0-------0-------|
A|-3---------3--------3---------3-----------|
E|------------------------------------------|

   G/B
E|------------------------------------------|
B|---------3------------------3-------------|
G|-----0-------0---0------0-------0---0-----|
D|---0---0-------0------0---0-------0-------|
A|-2---------2--------2---------2-----------|
E|------------------------------------------|

   Em7
E|------------------------------------------|
B|---------8------------------8-------------|
G|-----0-------0---0------0-------0---0-----|
D|---0---0-------0------0---0-------0-------|
A|-7---------7--------7---------7-----------|
E|------------------------------------------|

   D11
E|----------------------------5-------------|
B|---------7--------------------------------|
G|-----0-------0---0------0-----------------|
D|---0---0-------0------0---0---------------|
A|-5---------5--------5---------------------|
E|------------------------------------------|

   C9
Se eu te convidar pra fugir

Será que você aceita
   G/B
Se eu viver pra te fazer sorrir

Na vibe mais perfeita
 Em7
Só fechar os olhos e enxergar um futuro

Só nós dois
   D11
Arruma tuas coisas

O depois a gente deixa pra depois

[Segunda Parte]

   C9
E|------------------------------------------|
B|---------3------------------3-------------|
G|-----0-------0---0------0-------0---0-----|
D|---0---0-------0------0---0-------0-------|
A|-3---------3--------3---------3-----------|
E|------------------------------------------|

   G/B
E|------------------------------------------|
B|---------3------------------3-------------|
G|-----0-------0---0------0-------0---0-----|
D|---0---0-------0------0---0-------0-------|
A|-2---------2--------2---------2-----------|
E|------------------------------------------|

   Em7
E|------------------------------------------|
B|---------8------------------8-------------|
G|-----0-------0---0------0-------0---0-----|
D|---0---0-------0------0---0-------0-------|
A|-7---------7--------7---------7-----------|
E|------------------------------------------|

   D11
E|----------------------------5-------------|
B|---------7--------------------------------|
G|-----0-------0---0------0-----------------|
D|---0---0-------0------0---0---------------|
A|-5---------5--------5---------------------|
E|------------------------------------------|

   C9
Se eu pedir permissão pro teu pai

Eu sei que ele não vai deixar
       G/B
Se quiser vir comigo viver o pra sempre

Sai antes dele acordar
     Em7
Não te prometo joia, luxo, carro do ano não
     D11
Mas te prometo todo o amor que tenho em meu coração

[Refrão]

   C9                Em7      D11  
E|------------------------------------------|
B|---8-x-8----8-x-8----8-x-8-----9-x-9------|
G|---0-x-0----0-x-0----7-x-7-----0-x-0------|
D|-----x--------x--------x---------x--------|
A|-------------------7----------------------|
E|-8---x----8---x--------x----10---x--------|

 C9
Juro, eu te faço feliz

Eu te faço mulher, eu te faço princesa
   Em7
Eu entro com todo o meu amor
     D11
Você entra com toda tua beleza
 C9
Juro que vamos casar na beira do mar

Vendo o amanhecer
       Em7                       D11
Que o meu pra sempre seja com você
          C9  Em7  D11
Só com você
          C9  Em7  D11
Só com você

[Solo] 

E|-12-10-----10-----------7h10p7------------|
B|-------12~----12-10-12---------8----------|
G|---------------------------------9--------|
D|------------------------------------------|
A|------------------------------------------|
E|------------------------------------------|

E|------------------------------------------|
B|------------------7h8--8-7----------------|
G|--------------7h9----------7---7/9--------|
D|----------7h9----------------9------------|
A|------7h9---------------------------------|
E|-7h10-------------------------------------|

E|---8/10------12\10-10-10\8-8-8\7----------|
B|-8----------------------------------------|
G|--------9\7-------------------------------|
D|------------------------------------------|
A|------------------------------------------|
E|------------------------------------------|

E|-15-15-15\14-14-14\12-12-12---------------|
B|---------------------------------8-10-8---|
G|-----------------------------7-9----------|
D|------------------------------------------|
A|------------------------------------------|
E|------------------------------------------|

[Primeira Parte]

   C9
Se eu te convidar pra fugir

Será que você aceita
   G/B
Se eu viver pra te fazer sorrir

Na vibe mais perfeita
 Em7
Só fechar os olhos e enxergar um futuro

Só nós dois
   D11
Arruma tuas coisas

O depois a gente deixa pra depois

[Segunda Parte]

   C9
Se eu pedir permissão pro teu pai

Eu sei que ele não vai deixar
       G/B
Se quiser vir comigo viver o pra sempre

Sai antes dele acordar
     Em7
Não te prometo joia, luxo, carro do ano não
     D11
Mas te prometo todo o amor que tenho em meu coração

[Refrão]

 C9
Juro, eu te faço feliz

Eu te faço mulher, eu te faço princesa
   Em7
Eu entro com todo o meu amor
     D11
Você entra com toda tua beleza
 C9
Juro que vamos casar na beira do mar

Vendo o amanhecer
       Em7                       D11
Que o meu pra sempre seja com você

[Terceira Parte]

   C9                Em7      D11  
E|------------------------------------------|
B|---8-x-8----8-x-8----8-x-8-----9-x-9------|
G|---0-x-0----0-x-0----7-x-7-----0-x-0------|
D|-----x--------x--------x---------x--------|
A|-------------------7----------------------|
E|-8---x----8---x--------x----10---x--------|

                C9
Aham! Só com você e ninguém mais

Porque quando é pra ser, deixa ir que o vento traz
                   Em7
Gata quanto tempo faz? Ó, eu nem sei mais
                 D11
Avisa pros teus pais que agora as coisas não serão iguais
   C9
E vá, faz as malas que eu tô indo te buscar(é)

Garota eu tenho um plano e umas notas pra gastar
Em7
    Ouvindo um som, brindando na sala de estar
   D11
Vivendo aquele sonho de uma casa de frente pro mar
C9
   Com hidromassagem e frigobar, daquele jeito

Pra relaxar, com tudo que tem direito
      Em7
Mas agora a certeza que eu te dou
                 D11
Além de um sobrenome e um cobertor

É um canto no meu peito
   C9
Então, eu não garanto o futuro, porque a vida é uma só

Se joga que eu seguro
               Em7
Você tem, você é tudo aquilo que eu procuro em alguém(oh, yeah!)
D11
    É por essas, entre outras, que eu te juro

[Refrão]

 C9
Juro, eu te faço feliz

Eu te faço mulher, eu te faço princesa
   Em7
Eu entro com todo o meu amor
     D11
Você entra com toda tua beleza
 C9
Juro que vamos casar na beira do mar

Vendo o amanhecer
       Em7                       D11
Que o meu pra sempre seja com você
          C9  Em7  D11
Só com você
          C9  Em7  D11  
Só com você

[Final] C9
00:00 / 00:00
Otros videos de esta canción
Repetir
Otros videos de esta canción
Composición de Marcus Freitas
1.023 vistas
    • ½ Tono
    • A
    • Bb
    • B
    • C
    • Db
    • D
    • Eb
    • E
    • F
    • F#
    • G
    • Ab
  • Agregar a la lista

    0 comentarios

    Ver todos los comentarios

    ¿Lograste tocar?

    57 Tocaron 13 Aún no

    ¡Graba un video tocando Juro (part. Mabili) y envíanoslo!

    00:00 / 00:00
    OK