Cifra Club

Mais Que Amizade

Banda Musa do Calypso

Cifrado: Principal (guitarra y guitarra eléctrica)
tono: C
[Solo]

E|-----------------------------------------------------------|
B|-----------------------------------------------------------|
G|-----------------------------------------------------------|
D|-------5-3h5p3-2-3-2----22------5-3h5p3-2-3-----2----------|
A|---------------------33-----------------------3------------|
E|-----------------------------------------------------------|

E|-----------------------------------------------------------|
B|----------------------------------------------------------|
G|----------------------------------------------------------|
D|-------5-3h5p3-2-3-2----22------5-3h5p3-2-3-2h3p2---------|
A|---------------------33----------------------------33-5-3-|
E|----------------------------------------------------------|

C                         F         C
Eu já sei por que você ta diferente assim  
C                         F         G
Sei  que  andou falando por ai  algo de mim
   Am                  Dm         
Eu sei não estou confundindo  
   Am                        Dm
Eu sei quer ser mais que um amigo
   Am         Dm      
Não adianta  esconder 
G                                                    C
Não  quer me falar por que, se eu também amo você?

[Refrão]

        F   G       C
Eu descobri porque
        F   G       C
Você me olha assim 
               F     G       C
É mais que amizade eu sei
         F    G             C
Eu descobri você gosta de mim
00:00 / 00:00
Otros videos de esta canción
Repetir
Otros videos de esta canción
Compositor no encontrado.
Colaboración y revisión:
  • Lucas
  • josé neto
49 vistas
    • ½ Tono
    • A
    • Bb
    • B
    • C
    • Db
    • D
    • Eb
    • E
    • F
    • F#
    • G
    • Ab
  • Agregar a la lista

    0 comentarios

    Ver todos los comentarios

    ¿Lograste tocar?

    1 Tocaron 0 Aún no

    ¡Graba un video tocando Mais Que Amizade y envíanoslo!

    00:00 / 00:00
    OK