Cifra Club

Não Sabe

Banda Musa do Calypso

Cifrado: Principal (guitarra y guitarra eléctrica)
tono: F#
Intro: F#  B  A#  B  C#  F#  C#

E|-----------------7--6----------------------------------|
B|-------------7-9--------7-9-7-4------------------------|
G|(6)-6-6-6--6-------------------------------------------|
D|-------------------------------------------------------|
A|-------------------------------------------------------|
E|-------------------------------------------------------|

E|----6-6--4-6-6--4-6-6--4---------6~--------------------|
B|4-4----------------------7-9-7-6-----9-7-9-7-6-7-6-4---|
G|----------------------------------------------------(6)|
D|-------------------------------------------------------|
A|-------------------------------------------------------|
E|-------------------------------------------------------| 2x 

F#
Porque você não veste sua roupa e sai ?
                                C#
Esquece de uma vez que a gente fez amor
 G#m
Quando penso que está apaixonado
B                             F#
Você sempre vira pro outro lado E eu ??
Enquanto você dorme penso em nós dois
                                           C#
Preciso conversar e você diz: Depois!!!

  G#m
Você acha que deu um show na cama
B                              F#               ( F# G# B C# )
Só porque me deu prazer, mas esqueceu O principal
C#                            G#m
Você foi me perdendo entre os dedos
                             B
E transformou meu sonho em pesadelo

Você foi insensível no amor
D#m
A minha paciência esgotou
G#m               B                   C#
Você não percebeu, mas já faz tempo que acabou

 F#                    G#m A#        B
Veste sua roupa e vai embora de vez
           C#                                  F#     C#
Você não sabe, não sabe, não sabe amar uma mulher   é é é

        C#       D#m
E ainda quer que eu te ame ??
        G#m       B     C#
E ainda quer que eu te ame ??

Intro: F#   B A#   B  C#  F#  C#

( F# G# C# )
Compositor não encontrado.
Colaboración y revisión:
  • Renato Granja
  • Caio Sales
  • erlesson silva
136 vistas
    • ½ Tono
    • A
    • Bb
    • B
    • C
    • Db
    • D
    • Eb
    • E
    • F
    • F#
    • G
    • Ab
  • Agregar a la lista

    0 comentarios

    Ver todos los comentarios

    ¿Lograste tocar?

    3 Tocaron 0 Aún no

    ¡Graba un video tocando Não Sabe y envíanoslo!

    00:00 / 00:00
    Outros vídeos desta música
    Repetir Calidad Automático
    Outros vídeos desta música
    00:00 / 00:00
    Automático
    OK