Cifra Club

Fui Fiel

Banda Sedutora

Cifrado: Principal (guitarra y guitarra eléctrica)
tono: E
Intro: E  B9  F#m  A

E|-----7-----------------------------------------|
B|--9--------7-9-7-------7-9-7-------10-9-7-9----|
G|-------------------9-6----------9-6------------|
D|-----------------------------------------------|
A|-----------------------------------------------|
E|-----------------------------------------------|

E|----7------------------------------------------|
B|--9-----7-9-7-------7-9-7----------------------|
G|-----------------9-6---------9-6-9-------------|
D|-----------------------------------------------|
A|-----------------------------------------------|
E|-----------------------------------------------|

E
Foi bonito, foi
B9            F#m
Foi intenso, foi verdadeiro
A
Mas sincero
E              B9
Sei que fui capaz
           F#m
Fiz até demais
     A
Te quis do teu jeito
E       B9
Te amei, te mostrei
F#m                   A
Que o meu amor foi o mais profundo
E        B9
Me doei, me entreguei
     F#m      A
Fui fiel! Chorei, chorei...

 E                          B9
Hoje eu acordei, me veio a falta de você
    F#m              A
Saudade de você, saudade de você
     E                         B9
Lembrei que me acordava de manhã só pra dizer:
      F#m
 Bom dia, meu bebê!
   A
Te amo, meu bebê!

Refrão:

E                          B9
Hoje eu acordei, me veio a falta de você
    F#m              A
Saudade de você, saudade de você
     E                         B9
Lembrei que me acordava de manhã só pra dizer:
      F#m
 Bom dia, meu bebê!
   A
Te amo, meu bebê!
00:00 / 00:00
Otros videos de esta canción
Repetir
Otros videos de esta canción
Compositor no encontrado.
Colaboración y revisión:
11 vistas
    • ½ Tono
    • A
    • Bb
    • B
    • C
    • Db
    • D
    • Eb
    • E
    • F
    • F#
    • G
    • Ab
  • Agregar a la lista

    0 comentarios

    Ver todos los comentarios

    ¿Lograste tocar?

    0 Tocaron 0 Aún no

    ¡Graba un video tocando Fui Fiel y envíanoslo!

    00:00 / 00:00
    OK