Cifra Club

Garoto

Banda Sedutora

Cifrado: Principal (guitarra y guitarra eléctrica)
tono: F
[Intro]  Dm  Bb  Gm  Am

E|-----------------------------------------------|
B|---------8-------------------------------------|
G|-7-10-7-----10-9-10----------------------------|5x
D|-----------------------------------------------|
A|-----------------------------------------------|
E|-----------------------------------------------|

E|-------------------------------10-9-10-9------10-9-10-9----|
B|---------8-------------------------------11-------------11-|
G|-7-10-7-----10-9-7-9/10-9----------------------------------|1x
D|-----------------------------------------------------------|
A|-----------------------------------------------------------|
E|-----------------------------------------------------------|

2° Parte

E|-----------------------------------------------|
B|---------8-------------------------------------|
G|-7-10-7-----10-9-10----------------------------|5x
D|-----------------------------------------------|
A|-----------------------------------------------|
E|-----------------------------------------------|

E|-----------------------------10-9-10-9------10-9-10-9-----10-9---9-10|
B|---------8-------------------------------11------------11------11----|
G|-7-10-7-----10-9-7-9/10-9--------------------------------------------|
D|---------------------------------------------------------------------|1x
A|---------------------------------------------------------------------|
E|---------------------------------------------------------------------|

    Dm         Gm
 Foi fantasia
             Am                   Dm           Gm
 O pedido de casamento foi farsa, foi mentira
               Am              Bb
 Só quis me iludir, virar minha cabeça
          Gm           Am
 Mais uma tola em suas mãos
    Dm      Gm               Am
 Não merecia essa tua ingratidão
             Bb      Gm
 Vai me pagar um dia
                 Am                  Bb
 Já tava em meus planos de construir família
        Gm         Am
 Desiludiu meu coração

Bb
 De repente manda uma mensagem
Gm                 Am
 Dizendo que não quer nada comigo
Bb
 Eu entrei em pane e lhe pedi
   Gm                     Am           A7
 Estou completamente alucinada, apaixonada
 
Refrão:
   Dm                 Bb
 Garoto, eu estou sofrendo
              Gm
 Eu estou morrendo
                Am
 Liga e diz pra mim
                                              Dm
 Que é mentira e se entrega em meus braços de novo
             Bb                 Gm
 E os nossos sonhos? Tudo foi engano
                  Am
 Qual vai ser meu fim?
 
 Garoto, estou apaixonada
 
 Menino

[Solo]  Dm  Bb  Gm  Am

E|-----------------------------------------------|
B|---------8-------------------------------------|
G|-7-10-7-----10-9-10----------------------------| 5x
D|-----------------------------------------------|
A|-----------------------------------------------|
E|-----------------------------------------------|

E|-------------------------------10-9-10-9------10-9-10-9----|
B|---------8-------------------------------11-------------11-|
G|-7-10-7-----10-9-7-9/10-9----------------------------------|1x
D|-----------------------------------------------------------|
A|-----------------------------------------------------------|
E|-----------------------------------------------------------|

2° Parte

E|-----------------------------------------------|
B|---------8-------------------------------------|
G|-7-10-7-----10-9-10----------------------------|5x
D|-----------------------------------------------|
A|-----------------------------------------------|
E|-----------------------------------------------|

E|-----------------------------10-9-10-9------10-9-10-9-----10-9---9-10|
B|---------8-------------------------------11------------11------11----|
G|-7-10-7-----10-9-7-9/10-9--------------------------------------------|1x
D|---------------------------------------------------------------------|
A|---------------------------------------------------------------------|
E|---------------------------------------------------------------------|


Bb
 De repente manda uma mensagem
Gm                 Am
 Dizendo que não quer nada comigo
Bb
 Eu entrei em pane e lhe pedi
   Gm                     Am           A7
 Estou completamente alucinada, apaixonada

   Dm                 Bb
 Garoto, eu estou sofrendo
              Gm
 Eu estou morrendo
                Am
 Liga e diz pra mim
                                              Dm
 Que é mentira e se entrega em meus braços de novo
             Bb                 Gm
 E os nossos sonhos? Tudo foi engano
                  Am
 Qual vai ser meu fim?
    Dm
 Garoto
00:00 / 00:00
Otros videos de esta canción
Repetir
Otros videos de esta canción
Compositor no encontrado.
Colaboración y revisión:
  • Eduardo P.
15 vistas
    • ½ Tono
    • A
    • Bb
    • B
    • C
    • Db
    • D
    • Eb
    • E
    • F
    • F#
    • G
    • Ab
  • Agregar a la lista

    0 comentarios

    Ver todos los comentarios

    ¿Lograste tocar?

    0 Tocaron 0 Aún no

    ¡Graba un video tocando Garoto y envíanoslo!

    00:00 / 00:00
    OK