Cifra Club

A Dor de Te Perder

Banda Torpedo

Cifrado: Principal (guitarra y guitarra eléctrica)
tono: Ab
Intro: G#  Cm  C#  C#m  D#

E|----------3----------------------------|
B|-----------6h8-9----------5-4----------|
G|-3h5--5p3-------6-6--6p5-3---6-6h8-6h8-|
D|---------6--------------------6--------|
A|---------------------------------------|
E|---------------------------------------|

E|-----6-------------------------------|
B|-6-8---8p6---------------------------|
G|-----------8-5-----------------------|
D|-------------------------------------|
A|-------------------------------------|
E|-------------------------------------|
 
 G#                   Fm
Meu amor quanto tempo já passou
             A#m
Quantos dias sem te ver
                   D#
Não dá pra te esquecer
 G#                  Fm
Você foi tudo o que sonhei pra mim
                   A#m
Do principio até o fim
                   D#
Será que é esse o fim?
Cm                           Fm
Pois não deixo de pensar em você
                                A#m
De vez em quando tô querendo te ver
                            C#
Porque eu sonho com você voltando
                   D#
E me pego às vezes te esperando
G#                                Fm
Você é um vicio que não dá pra deixar
                        A#m
Mas eu tenho que me acostumar

Esconder você no coração
        C#                D#        G#
Perder você é tão difícil de aceitar
Fm
E essa saudade eu vou tentando 
    Cm
disfarçar
    A#m C#        G#
E a dor de te perder
        Fm                        Cm
E essa vontade de chorar no meu olhar
     C#             D#
Não posso evitar enquanto você não 
 G#
voltar
00:00 / 00:00
Otros videos de esta canción
Repetir
Otros videos de esta canción
Compositor no encontrado.
Colaboración y revisión:
  • joas ferreira
58 vistas
    • ½ Tono
    • A
    • Bb
    • B
    • C
    • Db
    • D
    • Eb
    • E
    • F
    • F#
    • G
    • Ab
  • Agregar a la lista

    0 comentarios

    Ver todos los comentarios

    ¿Lograste tocar?

    0 Tocaron 0 Aún no

    ¡Graba un video tocando A Dor de Te Perder y envíanoslo!

    00:00 / 00:00
    OK