Cifra Club

Aprenda

Beautiful

BTS

Tablatura: Principal (guitarra)
Tom: A
Riff:
E|------------------------------------------------------------
B|------------------------------------------------------------
G|--2-4-4--2-2h4-4/6-6/4-4---2-4-4--2-2h4-4/6-6/4-4------4-4--
D|----------------------------------------------------0-------
A|------------------------------------------------------------
E|------------------------------------------------------------

E|------------------------------------------------------------
B|------------------------------------------------------------
G|------4-4/2-2---4-4-----4-4/2-----6-6-4---4-4-2-------------
D|0-0-----------2-----2-2-------2-4-------0-------------------
A|------------------------------------------------------------
E|------------------------------------------------------------

(Repete música inteira)

Yeah, beautiful girl
Yeah, beautiful gir
l
Base:
(A5 D5 E5 F#5 D5)

Geunyeoneun naege jonggyo, so I can call you she-sus
Niga namchini eobtneungeol mirweo
Bwasseulddae mame dureun cheolbyeok
Nagateun pyeongbeomnameun niga mandeun gijune gyeolgyeok
So sseotji chinguran gamyeon
Niyeopeseo nae bonshimeul sumgyeogamyeo
Pyeonghan saiui beobjuro seullaiding
Dabdabhame maeilbwa ibule nallineun high kick
Damn neon maeil nal yuhokhaeni
Ni pyojeongdeul hanahana ddaeme nan jajereul mothae
Bogoitjani meoriga bing bing
Pool full beauty and I dive in it
Girl I'm so k.o
Soonshikgane nareul jeomryeonghan napulle-ong
Nan gyesok barabogiman hagetji
Chinguran dugeulja-e nal gamchoonchaero

Jimin:
You're beautiful
Cham gwenchanji anhni uri dul
Maennal ireokke ddo sangsangeul hae
You be with me with me

Jungkook:
You're beautiful
Hamggemeyon eoddeolji uri dul
Maennal ireokke ddo sangsangeul hae
You be with me with me

J-hope:
Shijakeun chum hakwoneseo juwi nae nuneun neoreul neombwa
Geurigo neol bwasseul ddae doreul jinaseo michweo geurae nae maeumeun geonbwa
Aesseo kol han cheok
Namjaran jonshimeul jikyeo an jweo nungilhanbeon
Geunde bowling cheoreom nimaleun gulleowa nahante
Jeonghwakhi seo itneun naemamiran pin-eul ddak strike-hae
Ieojineun beonho gyohwane bamsae munjawa tonghwahae
Neo-e daehan naui mameun better than better
Geunde neon eoddeoke saengakhae halji gami anwa neowa nae
Sai machim deullyeowa "namchini itdeyo"
Geurae yeojarangeo modu ddokgata machi uniform
Geurae jjaksarangideorado geu soonganmankeumeun beautiful

Jungkook:
You're beautiful
Cham gwenchanji anhni uri dul
Maennal ireokke ddo sangsangeul hae
You be with me with me

V:you're beautiful
Hamggemeyon eoddeolji uri dul
Maennal ireokke ddo sangsangeul hae
You be with me with me
Colaboración y revision:
  • Thiago
  • Guilherme Carvalho
291 reproducciones
    • ½ Tom
    • A
    • Bb
    • B
    • C
    • Db
    • D
    • Eb
    • E
    • F
    • F#
    • G
    • Ab
  • Adicionar à lista

    0 comentarios

    Mostrar mais comentários

    ¿Conseguiste tocar?

    0 Tocaron 0 Ainda não

    Grave um vídeo tocando Beautiful e mande pra gente!

    00:00 / 00:00
    outros vídeos desta música
    repetir qualidade Automático
    Outros vídeos desta música
    00:00 / 00:00
    Automático
    OK