Cifra Club

Butterfly

BTS

Cifrado: Principal (guitarra y guitarra eléctrica)
tono: Eb (con acordes en la forma de D) Capotraste en 1ª casa
Capotraste na 1ª casa


[Primeira Parte]

  F9
E|--------------3-----------------------3-----------|
B|--------1-----------1-----------1-----------1-----|
G|-----2-----2-----2-----2-----2-----2-----2-----2--|
D|--3-----------------------3-----------------------|
A|--------------------------------------------------|
E|--------------------------------------------------|

  C
E|--------------3-----------------------3-----------|
B|--------1-----------1-----------1-----------1-----|
G|-----0-----0-----0-----0-----0-----0-----0-----0--|
D|--------------------------------------------------|
A|--3-----------------------3-----------------------|
E|--------------------------------------------------|

  Em7
E|--------------3-----------------------3-----------|
B|--------3-----------3-----------3-----------3-----|
G|-----0-----0-----0-----0-----0-----0-----0-----0--|
D|--2-----------------------2-----------------------|
A|--------------------------------------------------|
E|--------------------------------------------------|

  Am7
E|--------------3-----------------------3-----------|
B|--------1-----------1-----------1-----------1-----|
G|-----0-----0-----0-----0-----0-----0-----0-----0--|
D|--------------------------------------------------|
A|--0-----------------------0-----------------------|
E|--------------------------------------------------|

F9
Amugeotdo saenggakhaji ma
     C
Neon amu maldo kkeonaejido ma
 Em7
Eo  oh
                   Am7
Geunyang naege useojwo yeah


[Segunda Parte]

  F9
E|--------------3-----------------------3-----------|
B|--------1-----------1-----------1-----------1-----|
G|-----2-----2-----2-----2-----2-----2-----2-----2--|
D|--3-----------------------3-----------------------|
A|--------------------------------------------------|
E|--------------------------------------------------|

  C
E|--------------3-----------------------3-----------|
B|--------1-----------1-----------1-----------1-----|
G|-----0-----0-----0-----0-----0-----0-----0-----0--|
D|--------------------------------------------------|
A|--3-----------------------3-----------------------|
E|--------------------------------------------------|

  Em7
E|--------------3-----------------------3-----------|
B|--------3-----------3-----------3-----------3-----|
G|-----0-----0-----0-----0-----0-----0-----0-----0--|
D|--2-----------------------2-----------------------|
A|--------------------------------------------------|
E|--------------------------------------------------|

  Am7
E|--------------3--------/8----5h7--5--3------------|
B|--------1-----------1-----------------------------|
G|-----0-----0-----0--------------------------------|
D|--------------------------------------------------|
A|--0-----------------------0-----------------------|
E|--------------------------------------------------|


    F9
Nan ajikdo mitgijiga anha
  C
i modeun ge da kkumin geot gata
 Em7
Eo, oh
               Am7
Sarajiryeo hajima yeah

      F9          C
Is it true? Is it true?
 Em7
You, you
      Am7
Neomu areumdawo duryeowo
  F9      C
Untrue, untrue
  Em7     
You, you, you


[Refrão]

   F7M
E|--0--0---0--0--0---0-|
B|--1--1---1--1--1---1-|
G|--2--2---2--2--2---2-|
D|--3--3---3--3--3---3-|
A|---------------------|
E|---------------------|

                F7M
Gyeote meomulleojullae
               C
Naege yaksokhaejullae
              Em
Son daemyeon naragalkka buseojilkka
    Am
Geobna geobna geobna
             F7M
Siganeul meomchullae
            C
i sungani jinamyeon
             Em
Eobseotdeon iri doelkka neol irheulkka
    Am
Geobna geobna geobna

      F                 Ab
Butterfly, like a butterfly
      Bb9                          C7M
Machi butterfly, bu butterfly cheoreom
      F                 Ab
Butterfly, like a butterfly
      Bb9                          C7M
Machi butterfly, bu butterfly cheoreom


[Terceira Parte]

F9
 Neon machi butterfly (butterfly, butterfly)
C
 Meolliseo humchyeobwa son daheumyeon neol irheulkka
  Em7
i chilheuk gateun eodum sok nal barkhineun nabihyogwa
Am
 Ni jageun sonjit han beone hyeonsireul ijeo nan

       F9
Salmyeosi sseudadeumneun baram gata
     C
Salposi pyoryuhaneun meonji gata
     Em7                            (pausa)
Neon geogi itjiman waenji dahji anha

Kkum gateun neon naege butterfly, high

  F9      C
Untrue, untrue
 Em7
You, you, you


[Refrão]
                F7M
Gyeote meomulleojullae
               C
Naege yaksokhaejullae
              Em
Son daemyeon naragalkka buseojilkka
    Am
Geobna geobna geobna
             F7M
Siganeul meomchullae
            C
i sungani jinamyeon
            Em
Eobseotdeon iri doelkka neol irheulkka
   Am
Geobna geobna geobna


[Quarta Parte]

            F
Simjangeun memareun sorireul nae

Kkuminji hyeonsirinji al su eobtne
      Ab
Naui haebyeonui kapeukayeo

Jeogi supeuro gajin marajwo
             Bb9
Nae maeumeun ajik neo wie buseojyeo

Jogakjogak kkamake noga heulleo
             C7M
Nan geunyang idaero jeungbalhago sipeo

Nae sarangeun yeongwonin geol

(It's all free, for you baby)


[Refrão]
                F7M
Gyeote meomulleojullae
               C
Naege yaksokhaejullae
              Em
Son daemyeon naragalkka buseojilkka
    Am
Geobna geobna geobna
             F7M
Siganeul meomchullae
            C
i sungani jinamyeon
            Em
Eobseotdeon iri doelkka neol irheulkka
    Am
Geobna geobna geobna

      F                             Ab
Butterfly (butterfly), like a butterfly (butterfly)
      Bb9                                        C7M
Machi butterfly (yeah), bu butterfly (yeah) cheoreom
      F                 Ab
Butterfly, like a butterfly
      Bb9                          C7M  
Machi butterfly, bu butterfly cheoreom
Composición de BrotherSu / Hitman Bang / PDOGG / Slow Rabbit
Colaboración y revisión:
2.279 vistas
    • ½ Tono
    • A
    • Bb
    • B
    • C
    • Db
    • D
    • Eb
    • E
    • F
    • F#
    • G
    • Ab
  • Agregar a la lista

    0 comentarios

    Ver todos los comentarios

    ¿Lograste tocar?

    18 Tocaron 15 Aún no

    ¡Graba un video tocando Butterfly y envíanoslo!

    00:00 / 00:00
    Outros vídeos desta música
    Repetir Calidad Automático
    Outros vídeos desta música
    00:00 / 00:00
    Automático
    OK