Cifra Club

Cuidado

Barão Vermelho

Cifrado: Principal (guitarra y guitarra eléctrica)
tono: G
[Intro]  G  A  C  D  G  A
         G  A  C  D  G  A

G  A
  O que você come
C  D
  O que você bebe
G  A
  O que você fuma

G  A
  O que você compra 
C  D
  O que você veste
G  A
  O que você usa

G  A
  Com quem você anda
C  D
  Com quem você vive
G  A
  Com quem você fica
  Com quem você se envolve

A     G  A
  Cuidado              
D     C  D
  Cuidado                
A              G  A  A  G  A
  Se não você dança
A     G  A
  Cuidado              
D     C  D
  Cuidado                
A              G  A  A  G  A
  Se não você dança

G  A
  E o flanelinha
C  D
  E o avião
G  A
  E a camisinha

G  A
  O que você fala
C  D
  No celular
G  A
  Com quem você fica 
  Com quem você se envolve

A     G  A
  Cuidado              
D     C  D
  Cuidado                
A              G  A  A  G  A
  Se não você dança
A     G  A
  Cuidado              
D     C  D
  Cuidado                
A              G  A  A  G  A
  Se não você dança

G  A
  E a bebedeira
C  D
  E a forma física
G  A
  E esse cara ai do lado
G  A
  Com quem você anda 
C  D
  com quem você vive
G  A
  Quem você ama
  Com quem você se envolve

A     G  A
  Cuidado              
D     C  D
  Cuidado                
A              G  A  A  G  A
  Se não você dança
A     G  A
  Cuidado              
D     C  D
  Cuidado                
A              G  A  A  G  A
  Se não você dança

[Solo]  G  A  C  D  G  A  G  A

E|---------------------------------88888888888888--------------|
B|-------------------------------------------------------------|
G|-9-7--9-7--9-7--9-7--7b9p5---7-5-----------------------------|
D|---------------------------7---------------------------------|
A|-------------------------------------------------------------|
E|-------------------------------------------------------------|

E|-------------------------------------------------------------|
B|-----------------------------------8-------------------------|
G|-9-7--9-7--9-7--9-7--7b9p5---7-5---7b9--7b9p5----------------|
D|---------------------------7------------------7--------------|
A|-------------------------------------------------------------|
E|-------------------------------------------------------------|

A     G  A
  Cuidado              
D     C  D
  Cuidado                
A              G  A  A  G  A
  Se não você dança
A     G  A
  Cuidado              
D     C  D
  Cuidado                
A              G  A  A  G  A
  Se não você dança

[Final]  G  A  C  D  G  A

“O que você come, bebe, fuma, compra, veste, usa (se não você dança...)”
00:00 / 00:00
Otros videos de esta canción
Repetir
Otros videos de esta canción
Composición de Marcello Rosauro / Maurício Barros / Roberto Frejat
Colaboración y revisión:
  • Heitor Favaro
  • Richard Sumner
  • Jairo
438 vistas
    • ½ Tono
    • A
    • Bb
    • B
    • C
    • Db
    • D
    • Eb
    • E
    • F
    • F#
    • G
    • Ab
  • Agregar a la lista

    0 comentarios

    Ver todos los comentarios

    ¿Lograste tocar?

    11 Tocaron 1 Aún no

    ¡Graba un video tocando Cuidado y envíanoslo!

    00:00 / 00:00
    OK