Cifra Club

Dancing in the Trees

Barefoot Truth

Chords: Principal (acoustic and electric guitars)
tone: C
When Will and Jay play it live they always switch it up a bit but 
the studio version sounds like this.  It probably isn’t 100% right 
but it’s a start for all you Barefoot fans out there.
Listen to the song to figure out the strumming and timing.


INTRO

   G        G       D    Cadd9        G       G      D
|--0h3------3-------2------3----------0h3-----3------2----3h5--5--3-----|
|--0h3------3-------3------3----------0h3-----3------3----3----3--3-----|
|--0--------0-------2------0----------0-------0------2------------------|
|--0--------0-------0------2----------0-------0------0------------------|    X4
|--2--------2--------------3----------2-------2-------------------------|
|--3--------3-------------------------3-------3-------------------------|

Harmonica solo comes in after the second time

VERSE 
-Pretty much the same as the intro

   G         G       D    Cadd9        G        G      D
|--0h3-------3-------2------3----------0h3------3------2----3h5--5--3-----|
|--0h3-------3-------3------3----------0h3------3------3----3----3--3-----|
|--0---------0-------2------0----------0--------0------2------------------|
|--0---------0-------0------2----------0--------0------0------------------|    X4
|--2---------2--------------3----------2--------2-------------------------|
|--3---------3-------------------------3--------3-------------------------|


CHORUS

   Em         C          D          G
|--0----------0----------2----------3------------|
|--0----------1----------3----------3------------|
|--0----------0----------2----------0------------|
|--2----------2----------0----------0------------|    3X
|--2----------3---------------------2------------|
|--0----------0---------------------3--3--2--0---|

   Em         C          D          D
|--0----------0----------2----------2----------|
|--0----------1----------3----------3----------|
|--0----------0----------2----------2----------|
|--2----------2----------0----------0----------|    1X
|--2----------3--------------------------------|
|--0----------0--------------------------------|


BRIDGE

   F      C      G     G7        
|--1------3------3-----3---------|
|--1------5------3-----3h5p3-----|
|--2------5------4-----4---------|
|--3------5------5-----3---------|     8X
|--3------3------5-----5---------|
|--1------3------3-----3---------|

OUTRO

   G         G       D    Cadd9        G        G      D
|--0h3-------3-------2------3----------0h3------3------2----3h5--5--3-----|
|--0h3-------3-------3------3----------0h3------3------3----3----3--3-----|
|--0---------0-------2------0----------0--------0------2------------------|
|--0---------0-------0------2----------0--------0------0------------------|    
|--2---------2--------------3----------2--------2-------------------------|
|--3---------3-------------------------3--------3-------------------------|

   G         G       D    Cadd9        G        G      D    Cadd9
|--0h3-------3-------2------3----------0h3------3------2------3~---|
|--0h3-------3-------3------3----------0h3------3------3------3~---|
|--0---------0-------2------0----------0--------0------2------0~---|
|--0---------0-------0------2----------0--------0------0------2~---|     
|--2---------2--------------3----------2--------2-------------3~---|
|--3---------3-------------------------3--------3------------------|

Song Layout:

INTRO 
VERSE 
CHORUS 
VERSE 
CHORUS 
BRIDGE  
VERSE - ONLY 2X NOT 4X 
CHORUS 
OUTRO (with harmonica)
00:00 / 00:00
Other videos of this song
Repeat
Other videos of this song
Composed by Felipe Mandelli
Collaboration and Review:
  • Felipe Mandelli
25 views
    • ½ Tone
    • A
    • Bb
    • B
    • C
    • Db
    • D
    • Eb
    • E
    • F
    • F#
    • G
    • Ab
  • Add to list
    00:00 / 00:00
    OK