Cifra Club

A Fine Day to Die

Bathory

Cifrado: Principal (guitarra y guitarra eléctrica)
tono: Db

ACOUSTIC INTRO  (TUNNING D!!!!)

INTRO_RIFF 1A (x4) (4th TIME,SLOWER LAST PART)
INTRO RIFF 1B (X1)
INTRO_RIFF 1A (x4) (4th TIME,SLOWER LAST PART)
INTRO RIFF 1B (X2)
INTRO_RIFF 1A (x4)
INTRO_RIFF 2  (x4)
INTRO RIFF 1B (X2)
INTRO_RIFF 1A (x4) (4th TIME,SLOWER LAST PART)

INTRO RIFF 1A
|------------------------------------------------|
|------------------------------------------------|
|------0-----------0-----------0-----------0-----|
|----1---1-------1---1-------3---3-------3---3---|
|--3-----------3-----------3-----------3---------|
|------------------------------------------------|
*** slower sometimes ***

INTRO RIFF 1B
|------------------------------------------------|
|------------------------------------------------|
|------0-----------0-----------0-----------0-----|
|----1---1-------1---1-------1---1-------1---1---|
|--3-----------3-----------3-----------3---------|
|------------------------------------------------|
*** slower sometimes ***

INTRO RIFF 2
|-------------------------|
|-------------------------|
|-------0-----------------|
|-----1---1---1----3------|
|---3---------3----2------|
|-------------------------|


Orgy of silence
Conspiracy of peace
Only the sound
Of the cold northern breeze

Twinsun sink fading
Behind the black lake
Asleep is the mountains
Yet the night is awake

Strange is the night
Now black stars rise
And many moons circle
Through silent the night
Composición de Quorthon
Colaboración y revisión:
  • Pedro Benz
214 vistas
    • ½ Tono
    • A
    • Bb
    • B
    • C
    • Db
    • D
    • Eb
    • E
    • F
    • F#
    • G
    • Ab
  • Agregar a la lista

    0 comentarios

    Ver todos los comentarios

    ¿Lograste tocar?

    1 Tocaron 0 Aún no

    ¡Graba un video tocando A Fine Day to Die y envíanoslo!

    00:00 / 00:00
    Outros vídeos desta música
    Repetir Calidad Automático
    Outros vídeos desta música
    00:00 / 00:00
    Automático
    OK