Cifra Club

Blood And Ironacoustic Intro

Bathory

Cifrado: Principal (guitarra y guitarra eléctrica)
tono: C
Album: Twilight Of The Gods

Transcribed By: Venom
Email:          V*

.  - palm mute           /  - slide up to
\  - slide down to       ~  - vibrato
p  - pull off            Suffixes for bend
t  - tap                 f  - full bend    h - half bend
ph - pinched harmonic    q  - quarter bend t - tap bend
*  - see comment         ^  - Hold bend    r release bend
,  - slight palm mute    () - ghost note, sustained note
"  - tremolo note         - Trill

Tunning e B G D A D


 Intro
E|-----------4--2-----4--2-----4---2------|
B|--------2--------2--------2---------2---|
G|----------------------------------------|
D|-----4----------------------------------|
A|----------------------------------------|
D|--4-------------------------------------|

E|---------0--2--------------0---2-------|
B|-------2-------2--------2---------2----|
G|---------------------------------------|
D|----0----------------0-----------------|
A|---------------------------------------|
D|--0---------------0--------------------|

E|-------------4--2-----4--2-----4--2------|
B|----------2--------2--------2--------2---|
G|-----------------------------------------|
D|-------4---------------------------------|
A|-0---------------------------------------|
D|----4------------------------------------|

E|-----2--0-----2-----------2--0-----2-----------------4-----2-----|
B|-----------2-----2-----2--------2-----2-----------2-----2-----2--|
G|-----------------------------------------------------------------|
D|-----------------------------------------------4-----------------|
A|-----------------------------------------0-----------------------|
D|--0-----------------0-----------------------4--------------------|

E|-----4--2-----4--2-----------------0-----2-----|
B|--------------------2-----------2-----2-----2--|
G|-----------------------------------------------|
D|--4--------4-----------4-----0-----------------|
A|-----------------------------------------------|
D|--------------------------0--------------------|

E|-------0-----2-----------------4-----2--------4--2-----4-----2-----------|
B|----------2-----2-----------2-----2-----2-----------2-----2-----2--------|
G|-------------------------------------------------------------------------|
D|---0---------------0-----4-----------------4-----------------------4-----|
A|-------------------------------------------------------------------------|
D|----------------------4--------------------------------------------------|

                                           0:30
E|-----------0-----2-----0--2-----0------|
B|--------2-----2-----2-----------0------|
G|--------------------------------1------|
D|-----0--------------------------2------|
A|--------------------------------2------|
D|--0--------------------------0--2------|

  
  0:33
E|-------------2--4--2------2--4--2-------|
B|----------2------------------------2----|
G|----------------------------------------|
D|-------4--------------4-----------------|
A|----------------------------------------|
D|----4-----------------------------------|
    2x

E|------------2--0--2-----------2--0-----2---------|
B|---------2-----------2-----2--------2-----2------|
G|-------------------------------------------------|
D|------0-----------------0--------------------0---|
A|-------------------------------------------------|
D|---0---------------------------------------------|

E|------------2--0--2--------------0-----2------|
B|---------2-----------2--------2-----2-----2---|
G|----------------------------------------------|
D|------0--------------------0------------------|
A|----------------------------------------------|
D|---0--------------------0---------------------|

E|--------------1--------------------0------------|
B|-----------3--------------------3--------3------|
G|--------2--------2-----------2--------2---------|
D|-----0--------------0-----0---------------------|
A|------------------------------------------------|
D|--0--------------------0------------------------|

E|------------0--------------------------1------------|
B|---------3--------3-----------------3--------3------|
G|---------------2-----2-----------2--------2---------|
D|------0-----------------0-----0-----------------0---|
A|----------------------------------------------------|
D|---0-----------------------0------------------------|

E|------------1----------------------1--------------1----------|
B|------------------3-------------------3----------------------|
G|---------2-----2-----2----------2--------------2-----2-------|
D|------0-----------------0----0--------------0-----------0----|
A|-------------------------------------------------------------|
D|---0-----------------------0-------------0-------------------|

E|---------1-----------------1--------------1-----|
B|------------3-----------3-----3--------3-----3--|
G|------2--------2-----2--------------2-----------|
D|------------------------------------------------|
A|------------------------------------------------|
D|---0--------------0--------------0--------------|

  1:15                                                                                      
E|----1---0h1p0-----------------0-----1----------1--------3--0-----1----------|
B|----3-------------3------0h1--------3-------------------3--2--------1-------|
G|----2----------2~--------0h2--------2--2p0--3-----------0--2----------------|
D|----0--------------------0h2--------0-------3-----3--0--0--2-----------3----|
A|----0-------------------------------0-------1-----------2--0----------------|
D|----0-------------------------------0-------------------------4-------------|

E|--------------0--1-0h1p0--------1-----------------|
B|-----------3--------------3--------3--------------|
G|--------2--------------------2-----------2--------|
D|-----0--------------------------------0-----0-----|
A|--------------------------------------------------|
D|--0-----------------------------------------------|

E|------------------------------------0h1-0h1p1----------|
B|---------------------------------3-------------3-------|
G|------------------------------2-------------------2~---|
D|------0----------0---------0---------------------------|
A|-------------------------------------------------------|
D|---0-----0--0/3-----3-2-0------------------------------|

E|---1--0h1p1-----------------0-----------------0--1-0h1p0-------------|
B|---3------------3p0---------1--------------3--------------3----------|
G|---2---------2~---------2---2-----------2----------------------------|
D|---0--------------------2---2--------0-------------------------------|
A|---0--------------------0------0-------------------------------------|
D|---0------------------------------0----------------------------------|

  1:42                                                                                      
E|----1---0h1p0-----------------0-----1----------1--------3--0-----1-----------1--|
B|----3-------------3------0h1--------3-------------------3--2--------1--------3--|
G|----2----------2~--------0h2--------2--2p0--3-----------0--2-----------------2--|
D|----0--------------------0h2--------0-------3-----3--0--0--2-----------------0--|
A|----0-------------------------------0-------1-----------2--0-----------3-----0--|
D|----0-------------------------------0-------------------------4-----------0--0--|
   2x

E|--------------|
B|-----------3--|
G|--------2-----|
D|-----0--------|
A|--0-----------|
D|--------------|

E|-------------------------------------------------------------------|
B|-------------------------------------------------------------------|
G|--------------------------------------------------5/7--7-----------|
D|---3^\2--0---0-0-0---0-0-0---0-0-3^\2--0---0-0-0--5/7--5-----------|
A|---3^\2--0---0-0-0---0-0-0---0-0-3^\2--0---0-0-0--3/5--5-----------|
D|---3^\2--0---0-0-0---0-0-0---0-0-3^\2--0---0-0-0-------------------|
                                                                                           4x

                        |.....WRONG......|
E|-------------------------------------------------------------------|
B|-------------------------------------------------------------------|
G|-------------------------------------------------------------------|
D|--0-3p2-3p2-3---0-3p2-3p0-3p2-0-2----------------------------------|
A|--0-3p2-3p2-3---0-3p2-3p0-3p2-0-2----------------------------------|
D|--0-3p2-3p2-3---0-3p2-3p0-3p2-0-2----------------------------------|

Please contact if somebody can help me with rest of the song!!!
V*
Compositor não encontrado.
31 vistas
    • ½ Tono
    • A
    • Bb
    • B
    • C
    • Db
    • D
    • Eb
    • E
    • F
    • F#
    • G
    • Ab
  • Agregar a la lista

    0 comentarios

    Ver todos los comentarios

    ¿Lograste tocar?

    0 Tocaron 0 Aún no

    ¡Graba un video tocando Blood And Ironacoustic Intro y envíanoslo!

    00:00 / 00:00
    Outros vídeos desta música
    Repetir Calidad Automático
    Outros vídeos desta música
    00:00 / 00:00
    Automático
    OK