Cifra Club

Hammerheart

Bathory

Cifrado: Principal (guitarra y guitarra eléctrica)
tono: G
HAMMERHEART - Bathory



Verse 1
 Now the wind…                     hardly a glimpse…           And the wise…
E|0-----------------|--------------|---------------------------|---------------------|
B|0-----------------|--------------|---------------------------|---------------------|
G|0-----------------|--------------|---------------------------|---------------------|
D|0-----------------|--------------|--3------------------------|---------------3-3h5-|
A|0---1-3--6-5--1---|---1-3--6-5---|6---6/5-5p3-3h5p3-1h3p1----|---1-3--6-5--6-------|
E|0-3-------------3-|-3----------6-|-------------------------3-|-3---------6---------|

                         For the ones who….
E|------------------------|--------------------------|-----------------------|
B|------------------------|--------------------------|-----------------------|
G|------------------------|-3------------------------|-3---------------3-3h5-|
D|3h5-3h5p3-----3-5p3-----|---6p5-3--3--3---3h5-3----|---6p5-3--3--3-5-------|
A|----------6-6-------6r6-|---------------6--------1-|-----------------------|
E|------------------------|--------------------------|-----------------------|

 I ask of thee…
E|-------------------|---------------------------0|
B|------3-4~-3~------|-4~------------------------0|
G|-5--5---------5~-3~|------------------3-3~-(15)0|
D|-------------------|----5p3-3---3--/5----------0| x3
A|-------------------|----------6----------------0|
E|-------------------|---------------------------0|

Verse 2
For when great clouds…
Verse 3
For all you who knew me near..

 The vast gates to hall…    Shall stand wide…
E|-------------------------|-----------------|-------------|--------------|
B|----------/4-3-----------|----------/4-3---|-4-6-4-3-3---|---3----------|
G|---3-3h5~------3---------|---3-3h5~------3-|-----------5-|-5---5~-3~----|
D|-5---------------5-3h5~--|-5---------------|-------------|------------5-|
A|-------------------------|-----------------|-------------|--------------|
E|-------------------------|-----------------|-------------|--------------|

 Climax!
 And Oden shall hail us                     HAMMERHEART!!!!!!!
E|---------------11-10----|---13-15~--15~-|-15-13-11~~~hold-11-10~~~~-|---3--||
B|----11-11/13~--------11/|16-------------|-------------|-------------|---4--||
G|-12---------------------|---------------|-------------|-------------|---3--||
D|------------------------|---------------|-------------|-------------|---1--||
A|------------------------|---------------|-------------|-------------|---1--||
E|------------------------|---------------|-------------|-------------|------||

h = hammer-on
p = pull-off
/ = slide up
~ = vibrato
( ) = tapped harmonic
Compositor não encontrado.
Colaboración y revisión:
  • Fernando Daniel
2 vistas
    • ½ Tono
    • A
    • Bb
    • B
    • C
    • Db
    • D
    • Eb
    • E
    • F
    • F#
    • G
    • Ab
  • Agregar a la lista

    0 comentarios

    Ver todos los comentarios

    ¿Lograste tocar?

    0 Tocaron 0 Aún no

    ¡Graba un video tocando Hammerheart y envíanoslo!

    00:00 / 00:00
    Outros vídeos desta música
    Repetir Calidad Automático
    Outros vídeos desta música
    00:00 / 00:00
    Automático
    OK