Cifra Club

Lake Of Fire

Bathory

Cifrado: Principal (guitarra y guitarra eléctrica)
tono: C (con acordes en la forma de D) Afinación: D G C F A D
Afinação|  D G C F A D

Intro

  D/A               Bb/A               D/A                Bb/A

|-^2-------3---5--|-^6-------5---3---|-^2-------3---5---|-^6-------5---3---|
|-^3-3-------3----|-^3-3-------3---3-|-^3-3-------3---3-|-^3-3-------3---3-|
|-^2---2----------|-^3---3-----------|-^2---2-----------|-^3---3-----------|
|-^0-----0--------|-^0-----0---------|-^0-----0---------|-^0-----0---------|
|-^0--------------|-^0---------------|-^0---------------|-^0---------------|
|-----------------|------------------|------------------|------------------|


    D/A                Bb/A

||--^2-------3---5---|-^6-------5---3---|
||o-^3-3-------3---3-|-^3-3-------3---3-|
||--^2---2-----------|-^3---3-----------|
||--^0-----0---------|-^0-----0---------|
||o-^0---------------|-^0---------------|
||-------------------|------------------|


  D/A                Bb/A
                                         3x
|-^2-------3---5---|-^6-------5---3-----||
|-^3-3-------3---3-|-^3-3-------3---3--o||
|-^2---2-----------|-^3---3-------------||
|-^0-----0---------|-^0-----0-----------||
|-^0---------------|-^0----------------o||
|------------------|--------------------||


    D                  Bb/D
    Gtr I

||--^2-------3---5---|-^6-------5---3---|
||o-^3-3-------3---3-|-^3-3-------3---3-|
||--^2---2-----------|-^3---3-----------|
||--^0-----0---------|-^0-----0---------|
||o------------------|------------------|
||-------------------|------------------|
|
|   Gtr II
|
||--^2---------------|-^6---------------|
||o-^3---------------|-^3---------------|
||--^2---------------|-^3---------------|
||--^0---------------|-^0---------------|
||o------------------|------------------|
||-------------------|------------------|


  D                  Bb/D

|-^2-------3---5---|-^6-------5---3-----||
|-^3-3-------3---3-|-^3-3-------3---3--o||
|-^2---2-----------|-^3---3-------------||
|-^0-----0---------|-^0-----0-----------||
|------------------|-------------------o||
|------------------|--------------------||
|

|-^2---------------|-^6-----------------||
|-^3---------------|-^3----------------o||
|-^2---------------|-^3-----------------||
|-^0---------------|-^0-----------------||
|------------------|-------------------o||
|------------------|--------------------||


   Verso I
    D                  Bbmaj7/D
    Gtrs I, II

||--^2-----------2---|-^5-------3-------|
||o-^3-3-----5-------|-^3-6-3-----6-3---|
||--^2---2-----2---2-|-^3-----3-------3-|
||--^0-----0---------|-^0---------------|
||o------------------|------------------|
||-------------------|------------------|


  D                  Bbmaj7/D

|-^2-----------2---|-^5-------3-----------||
|-^3-3-----5-------|-^3-6-3-----6-3-(3)--o||
|-^2---2-----2---2-|-^3-----3-------------||
|-^0-----0---------|-^0-------------------||
|------------------|---------------------o||
|------------------|----------------------||


    D

||--^2--2--3-2-0---2---|-^2-x-x-2--^2-x-x-2-2-2-|
||o-^3--3--3-----3---3-|-^3-x-x-3--^3-x-x-3-3-3-|
||--^2--2--2-----------|-^2-x-x-2--^2-x-x-2-2-2-|
||--^0--0--0-----------|-^0-----0--^0-----0-0-0-|
||o--------------------|------------------------|
||---------------------|------------------------|



|-^2--2--3-2-0---2---|-^2-x-x-2--^2-x-x-2-2-2---||
|-^3--3--3-----3---3-|-^3-x-x-3--^3-x-x-3-3-3--o||
|-^2--2--2-----------|-^2-x-x-2--^2-x-x-2-2-2---||
|-^0--0--0-----------|-^0-----0--^0-----0-0-0---||
|--------------------|-------------------------o||
|--------------------|--------------------------||


  A5/D
  ]
|------------------|-----------------|
|-^5-5-----6---8---|-3---5---6---8---|
|-^2---2-----3---5-|---2---2---3---5-|
|-^0-----0---------|-----------------|
|------------------|-----------------|
|------------------|-----------------|


    D                  Bb/D
    Gtrs I, IV

||--^2-------3---5---|-^6-------5---3---|
||o-^3-3-------3---3-|-^3-3-------3---3-|
||--^2---2-----------|-^3---3-----------|
||--^0-----0---------|-^0-----0---------|
||o------------------|------------------|
||-------------------|------------------|


  D                  Bb/D

|-^2-------3---5---|-^6-------5---3-----||
|-^3-3-------3---3-|-^3-3-------3---3--o||
|-^2---2-----------|-^3---3-------------||
|-^0-----0---------|-^0-----0-----------||
|------------------|-------------------o||
|------------------|--------------------||


   Verso II
    D                  Bbmaj7/D
    Gtrs I, II

||--^2-----------2---|-^5-------3-------|
||o-^3-3-----5-------|-^3-6-3-----6-3---|
||--^2---2-----2---2-|-^3-----3-------3-|
||--^0-----0---------|-^0---------------|
||o------------------|------------------|
||-------------------|------------------|


  D                  Bbmaj7/D

|-^2-----------2---|-^5-------3--------||
|-^3-3-----5-------|-^3-6-3-----6-3---o||
|-^2---2-----2---2-|-^3-----3----------||
|-^0-----0---------|-^0----------------||
|------------------|------------------o||
|------------------|-------------------||


    D

||--^2--2--3-2-0---2---|-^2-x-x-2--^2-x-x-2-2-2-|
||o-^3--3--3-----3---3-|-^3-x-x-3--^3-x-x-3-3-3-|
||--^2--2--2-----------|-^2-x-x-2--^2-x-x-2-2-2-|
||--^0--0--0-----------|-^0-----0--^0-----0-0-0-|
||o--------------------|------------------------|
||---------------------|------------------------|



|-^2--2--3-2-0---2---|-^2-x-x-2--^2-x-x-2-2-2---||
|-^3--3--3-----3---3-|-^3-x-x-3--^3-x-x-3-3-3--o||
|-^2--2--2-----------|-^2-x-x-2--^2-x-x-2-2-2---||
|-^0--0--0-----------|-^0-----0--^0-----0-0-0---||
|--------------------|-------------------------o||
|--------------------|--------------------------||


  A5/D                                D

|-----------------|-----------------|-2----|
|-5-5-----6---8---|-3---5---6---8---|-3----|
|-2---2-----3---5-|---2---2---3---5-|-2----|
|-0-----0---------|-----------------|-0----|
|-----------------|-----------------|------|
|-----------------|-----------------|------|


  D

|-2-x-x-2--2-x-x-2-2-2-|-2--2--3-2-0---2---|
|-3-x-x-3--3-x-x-3-3-3-|-3--3--3-----3---3-|
|-2-x-x-2--2-x-x-2-2-2-|-2--2--2-----------|
|-0-----0--0-----0-0-0-|-0--0--0-----------|
|----------------------|-------------------|
|----------------------|-------------------|

|-2-x-x-2--2-x-x-2-2-2-|-2--2--3-2-0---2-----|
|-3-x-x-3--3-x-x-3-3-3-|-3--3--3-----3---3---|
|-2-x-x-2--2-x-x-2-2-2-|-2--2--2-------------|
|-0-----0--0-----0-0-0-|-0--0--0-------------|
|----------------------|---------------------|
|----------------------|---------------------|


  D

|-2-x-x-2--2-x-x-2-2-2-|-2--2--3-2-0---2---|-2-x-x-2--2-x-x-2-2----|
|-3-x-x-3--3-x-x-3-3-3-|-3--3--3-----3---3-|-3-x-x-3--3-x-x-3-3----|
|-2-x-x-2--2-x-x-2-2-2-|-2--2--2-----------|-2-x-x-2--2-x-x-2-2----|
|-0-----0--0-----0-0-0-|-0--0--0-----------|-0-----0--0-----0-0----|
|----------------------|-------------------|-----------------------|
|----------------------|-------------------|-----------------------|


 Solo
  D/A                Bb/A               D/A                Bb/A
  Gtr I
   ~~~~~~~~~~~~~~~~~~~~~~~~~~~~~~~~~~~~~~~~~~~~~~~~~~~~~~~~~~~~~~~~~~~

|------------------|------------------|------------------|------------------|
|------------------|------------------|------------------|------------------|
|--7-----------7---|------------------|------------------|----------5-------|
|----------7-------|--8-------7---5---|--4-------5---7---|--8---------------|
|------------------|------------------|------------------|------------------|
|------------------|------------------|------------------|------------------|
|
| Gtrs II, III

|-^2-------3---5---|-^6-------5---3---|-^2-------3---5---|-^6-------5---3---|
|-^3-3-------3---3-|-^3-3-------3---3-|-^3-3-------3---3-|-^3-3-------3---3-|
|-^2---2-----------|-^3---3-----------|-^2---2-----------|-^3---3-----------|
|-^0-----0---------|-^0-----0---------|-^0-----0---------|-^0-----0---------|
|-^0---------------|-^0---------------|-^0---------------|-^0---------------|
|------------------|------------------|------------------|------------------|


  D/A                Bb/A
   ~~~~~~~~~~~~~~~~~~~~~~~           ~

|------------------|-------------------------|
|------------------|-------------------------|
|--7-------9-------|-10---------9h10p9---5h7-|
|------------------|-------------------------|
|------------------|-------------------------|
|------------------|-------------------------|
|

|-^2-------3---5---|-^6--------------5---3---|
|-^3-3-------3---3-|-^3---3------------3---3-|
|-^2---2-----------|-^3-----3----------------|
|-^0-----0---------|-^0-------0--------------|
|-^0---------------|-^0----------------------|
|------------------|-------------------------|


  D/A                Bb/A
   ~~~~~~~~~~~~~~~~~~~~~~~~~~~~~

|------------------|--------------------|
|------------------|--------------------|
|--7-----------7---|----------5---------|
|----------7-------|--8-----------------|
|------------------|--------------------|
|------------------|--------------------|
|

|-^2-------3---5---|-^6-------5---3-----|
|-^3-3-------3---3-|-^3-3-------3---3---|
|-^2---2-----------|-^3---3-------------|
|-^0-----0---------|-^0-----0-----------|
|-^0---------------|-^0-----------------|
|------------------|--------------------|


  D/A
   ~~

|-------------------------------------------------------------------------|
|-------------------------------------------------------------------------|
|--7---/14h17p15p14h17p15p14h17p15p14h17p15p14h17p15p14h17p15p14h17p15p14-|
|-------------------------------------------------------------------------|
|-------------------------------------------------------------------------|
|-------------------------------------------------------------------------|
|

|-^2-----------------------3-----------------------5----------------------|
|-^3-3---------------------------------3-----------------------3----------|
|-^2-----2----------------------------------------------------------------|
|-^0-----------0----------------------------------------------------------|
|-^0----------------------------------------------------------------------|
|-------------------------------------------------------------------------|


  Bb/A
   ~~~

|-----------------------------------------------------|
|-----------------------------------------------------|
|-15------15h17-18p17-15h17-18p17p15h17p15------------|
|------------------------------------------17p12h14---|
|-----------------------------------------------------|
|-----------------------------------------------------|
|

|-^6-------------5-----------3------------------------|
|-^3--3----------------3-----------------3------------|
|-^3----3---------------------------------------------|
|-^0-------0------------------------------------------|
|-^0--------------------------------------------------|
|-----------------------------------------------------|

    D/A
                       |---3----|  |--3--|  |--3--|

|---------------------------------------------------|
|---------------------------------------------17p15-|
|-15---15p14p12-14---(14)---12h14-15p14-15h17-------|
|---------------------------------------------------|
|---------------------------------------------------|
|---------------------------------------------------|
|

|-^2-------------------3-----------5----------------|
|-^3-3--------------------3-----------------3-------|
|-^2-------------2----------------------------------|
|-^0---------------0--------------------------------|
|-^0------------------------------------------------|
|---------------------------------------------------|


  Bb/A

|------------------------------------------------------|
|-18p17h18p17-15h17p15h17-15p14h15---------------------|
|------------------------------------14h17-15p14h15p14-|
|------------------------------------------------------|
|------------------------------------------------------|
|------------------------------------------------------|
|

|-^6-----------------------------5----------------3----|
|-^3--3-------------------------------3--------------3-|
|-^3--------------3------------------------------------|
|-^0-----------------0---------------------------------|
|-^0---------------------------------------------------|
|------------------------------------------------------|


 Outro
  A5/D
  Gtrs I, II

|-----------------|-----------------|
|-5-5-----6---8---|-3---5---6---8---|
|-2---2-----3---5-|---2---2---3---5-|
|-0-----0---------|-----------------|
|-----------------|-----------------|
|-----------------|-----------------|


    D                  Bb/D
    Gtrs I, II

||--^2-------3---5---|-^6-------5---3---|
||o-^3-3-------3---3-|-^3-3-------3---3-|
||--^2---2-----------|-^3---3-----------|
||--^0-----0---------|-^0-----0---------|
||o------------------|------------------|
||-------------------|------------------|
|
|   Gtr IV

||--^2-------3---5---|-^6-------5---3---|
||o-^3-3-------3---3-|-^3-3-------3---3-|
||--^2---2-----------|-^3---3-----------|
||--^0-----0---------|-^0-----0---------|
||o-^0---------------|-^0---------------|
||-------------------|------------------|


  D                  Bb/D

|-^2-------3---5---|-^6-------5---3-----||
|-^3-3-------3---3-|-^3-3-------3---3--o||
|-^2---2-----------|-^3---3-------------||
|-^0-----0---------|-^0-----0-----------||
|------------------|-------------------o||
|------------------|--------------------||
|

|-^2-------3---5---|-^6-------5---3-----||
|-^3-3-------3---3-|-^3-3-------3---3--o||
|-^2---2-----------|-^3---3-------------||
|-^0-----0---------|-^0-----0-----------||
|-^0---------------|-^0----------------o||
|------------------|--------------------||


  D

|-^2--------|-^(2)----*|
|-^3--------|-^(3)----*|
|-^2--------|-^(2)----*|
|-^0--------|-^(0)----*|
|-----------|---------*|
|-----------|---------*|
|
|

|-^2--------|-^(2)----*|
|-^3--------|-^(3)----*|
|-^2--------|-^(2)----*|
|-^0--------|-^(0)----*|
|-^0--------|-^(0)----*|
|-----------|---------*|
Composición de Quorthon
Colaboración y revisión:
  • Vitøria Førsberg
66 vistas
    • ½ Tono
    • A
    • Bb
    • B
    • C
    • Db
    • D
    • Eb
    • E
    • F
    • F#
    • G
    • Ab
  • Agregar a la lista

    0 comentarios

    Ver todos los comentarios

    ¿Lograste tocar?

    0 Tocaron 0 Aún no

    ¡Graba un video tocando Lake Of Fire y envíanoslo!

    00:00 / 00:00
    Outros vídeos desta música
    Repetir Calidad Automático
    Outros vídeos desta música
    00:00 / 00:00
    Automático
    OK