Cifra Club

The Ravens

Bathory

Cifrado: Principal (guitarra y guitarra eléctrica)
tono: G
Album: Blood On Ice

Version 1.0 - *

Transcribed By: Nazgul
Email:          V*


.  - palm mute           /  - slide up to
\  - slide down to       ~  - vibrato
p  - pull off            Suffixes for bend
t  - tap                 f  - full bend    h - half bend
ph - pinched harmonic    q  - quarter bend t - tap bend
*  - see comment         ^  - Hold bend    r release bend
,  - slight palm mute    () - ghost note, sustained note
"  - tremolo note         - Trill

Tunning E B G D A E

E|---0--------------0--------0h3--0------------|
B|------0--------------0-----------------------|
G|---------0--------------0----------0---------|
D|------------2-------------------------2------|
A|---------------3-------------------------0---|
E|---0-----------------------0-----------------|

E|--0--------1--------------0---------------------------|
B|-----1--------3--------------0--------1-------3-------|
G|--------0--------2--------------0----------------0----|
D|--------------------3--------------------(2)--------2-|
A|-----------3-----------------------3------------------|
E|-----------------------0------------------------------|

E|--0-------------0--------3-----------0----------|
B|-----(0)-----------0--------3-----------0-------|
G|----------0-----------0--------0----------------|
D|-------------------------------------------2----|
A|-------------3--------------------0-------------|
E|--0----------------------0----------------------|

E|--1--------------0--------------0-------------|
B|-----1--------------0--------1--1--1----------|
G|--------2--------------0--------2--------2----|
D|-----------0--------------2-----2-----2-------|
A|--------------------------------0-------------|
E|--1-----------0-------------------------------|

E|--0-----------0--------3--------------0-----3-----------|
B|-----0-----------1--------3--------------1-----3--------|
G|--------0-----------0--------2--0-----------------2-----|
D|-----------2--------------------------------------------|
A|--------------3--------------------0--------------------|
E|--0-----------------------------------------------------|

E|-----------0-----------0-------------------|
B|--------------1-----------1--------0-------|
G|--------2-----------2-----------------0----|
D|-----2--------------------------2----------|
A|--3----------------------------------------|
E|-----------------1-----------0-------------|

   0:32
E|--0--------------0-----3--0-----------0--------3-------------|
B|-----0-----------------------------------1--------3----------|
G|--------0-----------0--------0--------------0--------0-------|
D|-----------2--------------------2-----------------------0----|
A|-----------------------------------3-------------------------|
E|--------------0--------------------------------0-------------|
                                                  |Fly my ravens ...

E|----3--------0-----------------------3-----------0--------------------|
B|-------1--------0--------1--------------3-----------1-----------------|
G|-------------------0--------0--------------0-----------0--------------|
D|-------------------------------2--------------------------------------|
A|--3-------------------3-----------------------------------3-----------|
E|----------0-----------------------0-----------3-----------------------|

  0:46
E|--------2-----------------------2h3--------|
B|--3--0-----3--0-----2--0-----0-------------|
G|-------------------------------------------|
D|-----------------4--------4----------4-----|
A|-------------------------------------------|
E|-------------------------------------------|

                                                     0:55
E|-----0--(3)-------3-----------3--------0-----------0-----------3----------|
B|------------0--------3--------------------0-----------1-----------3-------|
G|------------------------0--------0-----------0-----------0-----------0----|
D|--------------------------------------------------------------------------|
A|---------------------------3--------------------3-------------------------|
E|--0------------3--------------------0-----------------------3-------------|
        

E|-----0--------3--0h3p0-----------------------------------0---|
B|--------1-----3--------(3)-------------------0--------0------|
G|-----------0--0-------------(2)-----------0--------0---------|
D|--------------0------------------------2--------2------------|
A|--3-----------2---------------------2------------------------|
E|--------------3------------------0---------------------------|
Compositor não encontrado.
68 vistas
    • ½ Tono
    • A
    • Bb
    • B
    • C
    • Db
    • D
    • Eb
    • E
    • F
    • F#
    • G
    • Ab
  • Agregar a la lista

    0 comentarios

    Ver todos los comentarios

    ¿Lograste tocar?

    0 Tocaron 0 Aún no

    ¡Graba un video tocando The Ravens y envíanoslo!

    00:00 / 00:00
    Outros vídeos desta música
    Repetir Calidad Automático
    Outros vídeos desta música
    00:00 / 00:00
    Automático
    OK