Cifra Club

Montauk

Bayside

Cifrado: Principal (guitarra y guitarra eléctrica)
tono: F#
This is the acoustic version of the song... i forgot to put acoustic in the title....

Intro 
Guitar 1
e|---------------------------------------------------------------------------|
B|---------------------------------------------------------------------------|
G|--6-6-6---6-6-x-6--6-6---6-6-----6-----------------------------------------|4x
D|--6-6-6---6-6-x-6--6-6---6-6-----6--(same pattern)-------------------------|
A|--x-x-x---x-x-x-x--x-x---x-x-----x-----------------------------------------|
E|--6-6-6---6-6-x-6--6-6---6-6-----4-----------------------------------------|
Guitar 2 after( after 1x of guitar)
e|---------------------------------------------------------------------------|
B|---------------------------------------------------------------------------|
G|----/6~-~-~-~--------------------------------------------------------------|
D|---------------------------------------------------------------------------|
A|---------------------------------------------------------------------------|
E|---------------------------------------------------------------------------|

Guitar 2 (after 2x times of guitar 1)
e|---------------------------------------------------------------------------|
B|-2-1-2-4-2-1-2-1~--4-2-1-2-1~----2-1-2-4-2-1-2-1~--4-2-1-2-1~--------------|
G|---------------------------------------------------------------------------|
D|---------------------------------------------------------------------------|
A|---------------------------------------------------------------------------|
E|---------------------------------------------------------------------------|

Verse
F#
It's getting cold
               C#
Thought it was too soon to tell 
G#
but it was terribly old 
            C#   Fm     F#
and now the heartbeat slows
     F#   G#   A
to a heartless crawl 

F#
The lights went out

The lights went out
    C#       G#
and darkness filled the house on 
  C# Fm  F#            C#   Fm     Cm
a tiring night under a Long Island sky. 

Pre-Chorus
Ab

Chorus
Bbm
I thought I'd known the consequence, 
F#
sweetness,

can you believe this? 
G#
mess we've made of it
C#
this mess we've made of it 
Bbm 
In years to come it might make sense
F#
sweetness 

can you believe this 
G#
Just what's become of it 
F#
What's become of it

Post Chorus
Bbm

Verse(Same as first)
but If you hear this and you think you're ready, meet me in 
we'll write out in the sand 
Here lies the destiny 
of two hurt souls afraid to be
cured again 
That could be our epitaph

Chorus (Same As First)
i thought i'd know the consequence 
sweetness
can you believe this
mess we've made of it
this mess we've made of it
in years to come it might make sense
sweetness
can you believe this
what's become of it 
what's become of it

Bridge

e|-6--6--6--6--6---4--4--4--4--4---2--2--2--2--2---1--1--1--1--1-------------|
B|--6--6--6--6--6---6--6--6--6--6---4--4--4--4--4---1--1--1--1--1------------|
G|---6--6--6--6--6---6--6--6--6--6---4--4--4--4--4---2--2--2--2--2-----------|
D|---------------------------------------------------------------------------|
A|---------------------------------------------------------------------------|
E|---------------------------------------------------------------------------|

Solo

Bbm-Db-B-F

Chorus (same as first)

i thought i'd know the consequence 
sweetness
can you beileve this
mess we've made of it
this mess we've made of it
in years to come it might make sense
sweetness
can you believe this
what's become of it
what's become of it
i know i know

End Chorus(Same as First except last chord)

i thought i'd known the consequence 
sweetness
can you believe this
mess we've made of it
this mess we've made of it
in years to come it might make sense
sweetness
did you foresee this
what's become of it
Bbm
what's become 
00:00 / 00:00
Otros videos de esta canción
Repetir
Otros videos de esta canción
Compositor no encontrado.
17 exhibiciones
    • ½ Tono
    • A
    • Bb
    • B
    • C
    • Db
    • D
    • Eb
    • E
    • F
    • F#
    • G
    • Ab
  • Agregar a la lista
    00:00 / 00:00
    OK