Cifra Club

They Look Like Strong Hands

Bayside

Cifrado: Principal (guitarra y guitarra eléctrica)
tono: D
Tabbed by:Scott Crowe
Email:*

Tuning: Drop d
^=bend up

and girls will fall inlove with you if you can play their stuff.  This is also my
first tab and since it took me long enough to figure out how to type this out I didn't
do the song not for note...I just told you where to repeat and you will have to listen
to the song for the suttle differences.  This is a guidline.  Please email me if you
notice any mistakes.  Enjoy

e|-----------------------------------------------------------------------------|
B|--------------2^-2--320------------------------------------------------------|
G|-----------------------20-----------------------0----------------------------|
D|------0-4-0-4------------4-----0-2-2^-2-0--2-0-4-4240----2X------------------|
A|----2------------------------2-----------------------------------------------|
D|-----------------------------------------------------------------------------|
INTRO - there are some bends listen to the song the second time through you
miss the last 8 notes

e|------------------------l-----------------------------l--------------------|
B|------------------------l-----------------------------l--------------------|
G|--4---7------------7----l-----------------------------l--------------------|
D|--4---7----2---5---7----l-----------------------------l2h4-4-4-0-2h4-4-4---|
A|--2---5----2---5---5----l---------4h5-5-5-0-4h5-5--5--l--------------------|
D|-----------2---5--------l-----------------------------l--------------------|
Verse - Plays the first chord but then just hammers on the other ones sounds
pretty cool.  Listen to the song for timing.  The second two riffs are played
over the chords in the second verse.

e|-----------------------------------------------------------------------------|
B|-----------------------------------------------------------------------------|
G|-----------------------------------------------------------------------------|
D|---x-x--5-7-9-4-5-7-0--------------------------------------------------------|
-|---x-x--5-7-9-4-5-7-0--------------------------------------------------------|
D|---x-x--5-7-9-4-5-7-0--------------------------------------------------------|
                  chorus.  Each chord is 6X each
e|---------------------------------------------------------------------------|
B|---------------------------------------------------------------------------|
G|----------------------------------------------------2-4-2------------------|
D|---------------------------5-4-2--------------------------4------4x--------|
A|----------2-2-2-5-5-5-2-2---------5-2-2-2-5-5-5-0-0------------------------|
E|---------------------------------------------------------------------------|
before bridge riff, on the last repition you hold some notes listen to the song
this is just a guidline

e|---------------------------------------------------------------------------|
B|---------------------------------------------------------------------------|
G|---------------------------------------------------------------------------|
D|---------------------------------------------------------------------------|
A|-----------------5-4-0-2--0-2-0-------0-5---2x-----------------------------|
E|--------0--4--0------------------0--4--------------------------------------|
bridge riff
00:00 / 00:00
Otros videos de esta canción
Repetir
Otros videos de esta canción
Compositor no encontrado.
15 exhibiciones
    • ½ Tono
    • A
    • Bb
    • B
    • C
    • Db
    • D
    • Eb
    • E
    • F
    • F#
    • G
    • Ab
  • Agregar a la lista
    00:00 / 00:00
    OK