Cifra Club

California Girls

The Beach Boys

Cifrado: Principal (guitarra y guitarra eléctrica)
Selo Cifra Club: esta cifra foi revisada para atender aos critérios oficiais da nossa Equipe de Qualidade.
tono: B
(Brian Wilson / Mike Love)

Intro: B A 

Obs: Esse solo acompanha a introdução
        
      B
        ----------------------      
        ---9---7--------------      
        -----------9-8-------- 4x  
        -9---9---9-----9--11--      
        ----------------------   
        ----------------------
        
      A
      ----------------------
      ---7---5--------------      
        -----------7-6-------- 1x    
        -7---7---7-----7--6---      
        ----------------------     
        ----------------------     

                
Verse 1:

              B                                   A 
        Well, East Coast girls are hip, I really dig those styles they wear
                 E
        And the Southern girls with the way they talk 
                      F#
        They knock me out when I'm down there
             B                                 A
        The midwest farmers' daughters really make you feel alright
                 E         
        And the Northern girls with the way they kiss
                        F#
        They keep their boyfriends warm at night

Chorus:

          B                  C#m7
        I wish they all could be California,
          A                   Bm7
        I wish they all could be California,
          G                   Am7           B
        I wish they all could be California Girls

Verse 2:
          B                                     A
        The West coast has the sunshine, and the girls all get so tanned
                 E 
      I dig a French bikini on Hawaiian Island dolls
              F#
      By a palm tree in the sand
            B                                           A
      I been all around this great big world and I've seen
        all kinds of girls
        E
      But I couldn't wait to get back in the states,  
                    F#
      Back to the cutest girls in the world

[repeat chorus]

Organ break [arr. for guitar]

         v   v   v   v     v   v   v   v
        -7-------7-------|-9-------9--------
        ----79--7---79--7|----79--7--79--7--
        -----------------|------------------
        -----------------|------------------
        -----------------|------------------
        -----------------|------------------

        
      
          B                                  C#m7
        I wish they all could be California girls
                                 (wish they all could be California) 4x
00:00 / 00:00
Otros videos de esta canción
Repetir
Otros videos de esta canción
25.949 exhibiciones
    • ½ Tono
    • A
    • Bb
    • B
    • C
    • Db
    • D
    • Eb
    • E
    • F
    • F#
    • G
    • Ab
  • Agregar a la lista

Afinación de cifrado

Afinador online

    00:00 / 00:00
    OK