Cifra Club

Vai Sacudir

Beatriz

Cifrado: Principal (guitarra y guitarra eléctrica)
tono: D
Intro:
     D     A              D                    A                      D
E|-----------------------------------------------------------------------|
B|-3-2-0-------2-5-----3-7-----3-7--7-7-5-7-7/10-10-10-10-8-7-7-7-7-5-7~-|
G|-------2-2-2-----2-2-----2-2-------------------------------------------|
D|-----------------------------------------------------------------------|
A|-----------------------------------------------------------------------|
E|-----------------------------------------------------------------------|
     D     A              D                    A                      D
E|-----------------------------------------------------------------------|
B|-3-2-0-------2-5-----3-7-----3-7--7-7-5-7-7/10-10-10-10-8-7-7-7-7-5-3~-|
G|-------2-2-2-----2-2-----2-2-------------------------------------------|
D|-----------------------------------------------------------------------|
A|-----------------------------------------------------------------------|
E|-----------------------------------------------------------------------|

D
Chora viola, transbordando de paixão
                                        A
Pula, pula coração feito um touro na arena

Do meu caminho as pedras eu removi
                G           A           D
Fui a luta e venci, sofri mais valeu a pena

Minha alegria é ver essa multidão

Xonada chapéu na Mão
         D7      G
Isso é pura energia
                                D
Segura as pontas prepare seu coração
                    A
O limite agora é o chão
                   D    D7
Vai subir a adrenalina
            G                    D
Segura as pontas prepare seu coração
                    A
O limite agora é o chão
                   D
Vai subir a adrenalina

A                                   D
Vai sacudir, vai chacoalhar, vai balançar
                 A          G           D
O clima tá esquentando, o amor está no ar.
        A                          D
Agarradinho, vou grudar igual chiclete
                     A                 D
Hoje vou pintar o sete poeira vai levantar.
Composición de Tião Pereira
Colaboración y revisión:
  • Bia Socek
17 vistas
    • ½ Tono
    • A
    • Bb
    • B
    • C
    • Db
    • D
    • Eb
    • E
    • F
    • F#
    • G
    • Ab
  • Agregar a la lista

    0 comentarios

    Ver todos los comentarios
    00:00 / 00:00
    Outros vídeos desta música
    Repetir Calidad Automático
    Outros vídeos desta música
    00:00 / 00:00
    Automático
    OK