Cifra Club

Perfect 10

Beautiful South

Tab de bajo: Principal
Selo Cifra Club: esta cifra foi revisada para atender aos critérios oficiais da nossa Equipe de Qualidade.
TUNING D,A,D,G

Fairly easy song... fun to play :)



INTRO

G||---------------------------------------------------------------------|
D||---------------------------------------------------------------------|x 2
A||-----------------------------------------------------------0-6-0-7\0-|
D||-0-6-0-7\0-----------0-6-0-7\0-----------0-6-0-7\0-------------------|

 



VERSE

G||---------------------------------------------------------------------|
D||---------------------------------------------------------------------|x 4
A||-----------------------------------------------------------0-6-0-7\0-|
D||-0-6-0-7\0-----------0-6-0-7\0-----------0-6-0-7\0-------------------|





CHORUS

G||----------------------------------------------------------------|
D||----------------------------------------------------------------|
A||-2-2-2-2-2-2-2-2-4-4-4-4-4-4-4-4-----------------2-2-2-2-2-2-2-2|
D||---------------------------------7-7-7-7-7-7-7-7----------------|

G||----------------------------------------------------------------|
D||----------------------------------------------------------------|
A||-2-2-2-2-2-2-2-2-4-4-4-4-4-4-4-4-0-0-0-0-0-0-0-0-2-2-2-2-2-2-2-2|
D||----------------------------------------------------------------|



VERSE x 4

G||---------------------------------------------------------------------|
D||---------------------------------------------------------------------|x 4
A||-----------------------------------------------------------0-6-0-7\0-|
D||-0-6-0-7\0-----------0-6-0-7\0-----------0-6-0-7\0-------------------|




CHORUS

G||----------------------------------------------------------------|
D||----------------------------------------------------------------|
A||-2-2-2-2-2-2-2-2-4-4-4-4-4-4-4-4-----------------2-2-2-2-2-2-2-2|
D||---------------------------------7-7-7-7-7-7-7-7----------------|

G||----------------------------------------------------------------|
D||----------------------------------------------------------------|
A||-2-2-2-2-2-2-2-2-4-4-4-4-4-4-4-4-0-0-0-0-0-0-0-0-2-2-2-2-2-2-2-2|
D||----------------------------------------------------------------|



VERSE x 2

G||---------------------------------------------------------------------|
D||---------------------------------------------------------------------|x 2
A||-----------------------------------------------------------0-6-0-7\0-|
D||-0-6-0-7\0-----------0-6-0-7\0-----------0-6-0-7\0-------------------|




CHORUS

G||----------------------------------------------------------------|
D||----------------------------------------------------------------|
A||-2-2-2-2-2-2-2-2-4-4-4-4-4-4-4-4-----------------2-2-2-2-2-2-2-2|
D||---------------------------------7-7-7-7-7-7-7-7----------------|

G||----------------------------------------------------------------|
D||----------------------------------------------------------------|
A||-2-2-2-2-2-2-2-2-4-4-4-4-4-4-4-4-0-0-0-0-0-0-0-0-2-2-2-2-2-2-2-2|
D||----------------------------------------------------------------|




OUTRO

G||---------------------------------------------------------------------|
D||---------------------------------------------------------------------|
A||-----------------------------------------------------------0-6-0-7\0-|
D||-0-6-0-7\0-----------0-6-0-7\0-----------0-6-0-7\0-------------------|

G||-----------------------------------------------------------------------------|
D||-----------------------------------------------------------------------------|
A||-------------------------------------------------------0-6-0-7\0--------7~---|
D||-0-6-0-7\0-----------0-6-0-7\0-----------0-6-0-7\0-------------------------7~|
Otros videos de esta canción
    18 exhibiciones

    Afinação da cifra

    Afinador online

    Ops (: Contenido disponible solo en portugués.
    OK