Cifra Club

Stayin' Alive

Bee Gees

Cifrado: Principal (guitarra y guitarra eléctrica)
Selo Cifra Club: esta cifra foi revisada para atender aos critérios oficiais da nossa Equipe de Qualidade.
tono: Bb (con acordes en la forma de A) Capotraste en 1ª casa
[Intro] Em7 A Em7 A

[Tab - Intro]

E|-------------|--------------|------------|---------------|
B|-------------|--------------|------------|---------------|
G|-------------|--------------|------------|---------------|
D|-------5-----|--------------|------------|--5------------|
A|--5h7-----5--|----------5---|------5h7---|-----5---------|
E|-------------|--7--5h7------|--5h7-------|--------7--5h7-|

E|--------------|---------------|--------------|-----------|
B|--------------|---------------|--------------|-----------|
G|--------------|---------------|--------------|-----------|
D|--------------|-------5-------|--------------|-----------|
A|--5-----------|--5h7-----5----|----------5---|-------5h7-|
E|-----5h7------|---------------|--7--5h7------|--5h7------|

E|---------------|--------------|--------------|-----------|
B|---------------|--------------|--------------|-----------|
G|---------------|--------------|--------------|-----------|
D|--5------------|--------------|--------------|-----------|
A|-----5---------|-5------------|--------------|-----------|
E|--------7--5h7-|---5h7--------|--------------|-----------|

              Em7
Well, you can tell by the way I use my walk
      D               Em7
I'm a woman's man, no time to talk
Em7
Music loud and women warm
          D                   Em7
I've been kicked around since I was born

             A
But now it's all right, that's okay
A
You may look the other way
A
We can try to understand
    A
The New York Times' effect on man

Em7
Whether you're a brother or whether you're a mother
       Em7
You're stayin' alive, stayin' alive
Em7
Feel the city breakin' and everybody shakin'
      Em7
I'm a-stayin' alive, stayin' alive
Em7             Em7
Ah, ah, ah, ah, stayin' alive, stayin' alive
Em7             Em7          D   Em7  Bm7
Ah, ah, ah, ah, stayin' ali-i-i-i --- ive
              Em7
Oh, when you walk

[Tab - Solo]

E|-------------|--------------|------------|---------------|
B|-------------|--------------|------------|---------------|
G|-------------|--------------|------------|---------------|
D|-------5-----|--------------|------------|--5------------|
A|--5h7-----5--|----------5---|------5h7---|-----5---------|
E|-------------|--7--5h7------|--5h7-------|--------7--5h7-|

E|--------------|---------------|--------------|-----------|
B|--------------|---------------|--------------|-----------|
G|--------------|---------------|--------------|-----------|
D|--------------|-------5-------|--------------|-----------|
A|--5-----------|--5h7-----5----|----------5---|-------5h7-|
E|-----5h7------|---------------|--7--5h7------|--5h7------|

E|---------------|--------------|--------------|-----------|
B|---------------|--------------|--------------|-----------|
G|---------------|--------------|--------------|-----------|
D|--5------------|--------------|--------------|-----------|
A|-----5---------|-5------------|--------------|-----------|
E|--------7--5h7-|---5h7--------|--------------|-----------|

          Em7
Well, now I get low and I get high
         D                   Em7
And if I can't get either, I really try
        Em7
Got the wings of heaven on my shoes
      D                  Em7
I'm a dancin' man, and I just can't lose

               A
You know, it's all right, it's okay
     A
I'll live to see another day
A
We can try to understand
    A
The New York Times' effect on man

Em7
Whether you're a brother or whether you're a mother
       Em7
You're stayin' alive, stayin' alive
Em7
Feel the city breakin' and everybody shakin'
      Em7
I'm a-stayin' alive, stayin' alive
Em7             Em7
Ah, ah, ah, ah, stayin' alive, stayin' alive
Em7             Em7          D   Em7  Bm7
Ah, ah, ah, ah, stayin' ali-i-i-i --- ive
Em7
Oooooh

[Tab - Solo]

E|-------------|--------------|------------|---------------|
B|-------------|--------------|------------|---------------|
G|-------------|--------------|------------|---------------|
D|-------5-----|--------------|------------|--5------------|
A|--5h7-----5--|----------5---|------5h7---|-----5---------|
E|-------------|--7--5h7------|--5h7-------|--------7--5h7-|

E|--------------|---------------|--------------|-----------|
B|--------------|---------------|--------------|-----------|
G|--------------|---------------|--------------|-----------|
D|--------------|-------5-------|--------------|-----------|
A|--5-----------|--5h7-----5----|----------5---|-------5h7-|
E|-----5h7------|---------------|--7--5h7------|--5h7------|

E|---------------|--------------|--------------|-----------|
B|---------------|--------------|--------------|-----------|
G|---------------|--------------|--------------|-----------|
D|--5------------|--------------|--------------|-----------|
A|-----5---------|-5------------|--------------|-----------|
E|--------7--5h7-|---5h7--------|--------------|-----------|

A
 Life goin' nowhere, somebody help me
                     Em7
Somebody help me, yeah
A
 Life goin' nowhere, somebody help me, yeah
   A             Em7
   I'm stayin' alive

          Em7
Well, you can tell by the way I use my walk
      D               Em7
I'm a woman's man, no time to talk
Em7
Music loud and women warm
          D                   Em7
I've been kicked around since I was born

             A
But now it's all right, that's okay
A
You may look the other way
A
We can try to understand
    A
The New York Times' effect on man

Em7
Whether you're a brother or whether you're a mother
       Em7
You're stayin' alive, stayin' alive
Em7
Feel the city breakin' and everybody shakin'
      Em7
I'm a-stayin' alive, stayin' alive
Em7             Em7
Ah, ah, ah, ah, stayin' alive, stayin' alive
Em7             Em7          D   Em7  Bm7
Ah, ah, ah, ah, stayin' ali-i-i-i --- ive
Em7
Yeah

[Tab - Solo]

E|-------------|--------------|------------|---------------|
B|-------------|--------------|------------|---------------|
G|-------------|--------------|------------|---------------|
D|-------5-----|--------------|------------|--5------------|
A|--5h7-----5--|----------5---|------5h7---|-----5---------|
E|-------------|--7--5h7------|--5h7-------|--------7--5h7-|

E|--------------|---------------|--------------|-----------|
B|--------------|---------------|--------------|-----------|
G|--------------|---------------|--------------|-----------|
D|--------------|-------5-------|--------------|-----------|
A|--5-----------|--5h7-----5----|----------5---|-------5h7-|
E|-----5h7------|---------------|--7--5h7------|--5h7------|

E|---------------|--------------|--------------|-----------|
B|---------------|--------------|--------------|-----------|
G|---------------|--------------|--------------|-----------|
D|--5------------|--------------|--------------|-----------|
A|-----5---------|-5------------|--------------|-----------|
E|--------7--5h7-|---5h7--------|--------------|-----------|

A
 Life goin' nowhere, somebody help me
                    Em7
Somebody help me, yeah
A                                         Em7
 Life goin' nowhere, somebody help me, yeah
              Em7
I'm stayin' ali-i-i-i-ive
A
 Life goin' nowhere, somebody help me
                    Em7
Somebody help me, yeah
A                                         Em7
 Life goin' nowhere, somebody help me, yeah
              Em7
I'm stayin' ali-i-i-i-ive
A
 Life goin' nowhere, somebody help me
                    Em7
Somebody help me, yeah
A                                         Em7
 Life goin' nowhere, somebody help me, yeah
              Em7
I'm stayin' ali-i-i-i-ive

A
 Life goin' nowhere, somebody help me
                    Em7
Somebody help me, yeah
A                                         Em7
 Life goin' nowhere, somebody help me, yeah
              Em7
I'm stayin' ali-i-i-i-ive
00:00 / 00:00
Otros videos de esta canción
Repetir
Otros videos de esta canción
291.930 exhibiciones
    • ½ Tono
    • A
    • Bb
    • B
    • C
    • Db
    • D
    • Eb
    • E
    • F
    • F#
    • G
    • Ab
  • Agregar a la lista

Afinación de cifrado

Afinador online

    00:00 / 00:00
    OK