Cifra Club

Light It Up

Behind Enemy Lines

Cifrado: Principal (guitarra y guitarra eléctrica)
tono: A
Album: The Global Cannibal
Tabbed by *

C Standard tuning (Low to High:C,F,Bb,Eb,G,C)

The solo isn't tabbed here. You'll have to figure that out yourself.


Verse (Main Riff)
|----------------------------------------------------------------|
|----------------------------------------------------------------|
|---------------7-9--9-9-9--9--------1010-10---------------------|
|-2-2--2-2-2--2-7-9--9-9-9--9-8-8--8-1010-108-8--8-5-7--7--------|
|-2-2--2-2-2--2-5-7--7-7-7--7-8-8--8-8-8--8-8-8--8-5-7--7--------|
|-0-0--0-0-0--0---------------6-6--6--------6-6--6-3-5--5--------|

Chorus
|----------------------------------------------------------------|
|----------------------------------------------------------------|
|---------------7-10-1010----------------------------------------|
|-9-9--9-9-9--9-7-10-10107--7------------------------------------|
|-9-9--9-9-9--9-5-8--8-8-7--7------------------------------------|
|-7-7--7-7-7--7----------5--5------------------------------------|

Bridge (Before solo)
|----------------------------------------------------------------|
|----------------------------------------------------------------|
|---------------10-----------------------------------------------|
|-2------8------10-----------------------------------------------|
|-2------8------8------------------------------------------------|
|-0------6-------------------------------------------------------|
Compositor não encontrado.
12 vistas
    • ½ Tono
    • A
    • Bb
    • B
    • C
    • Db
    • D
    • Eb
    • E
    • F
    • F#
    • G
    • Ab
  • Agregar a la lista

    0 comentarios

    Ver todos los comentarios

    ¿Lograste tocar?

    0 Tocaron 0 Aún no

    ¡Graba un video tocando Light It Up y envíanoslo!

    00:00 / 00:00
    Outros vídeos desta música
    Repetir Calidad Automático
    Outros vídeos desta música
    00:00 / 00:00
    Automático
    OK