Cifra Club

Narcolepsy

Ben Folds Five

Cifrado: Principal (guitarra y guitarra eléctrica)
Selo Cifra Club: esta cifra foi revisada para atender aos critérios oficiais da nossa Equipe de Qualidade.
tono: E
 E.

   That's part.  You need to actually play it to make it good.  I know this is confusing
but once you got it sounds great.

  Here is the tab for it if this is easier for you to figure out on the piano keys.

E|---0--------------------------------------------------------|
B|----------------------0------------------3------------------|
G|------0--0-----0--0------0--0-----0--0------0--0-----0--0---|
D|------------------------------------------------------------|
A|---3--------3---------3--------3---------3--------3---------|
E|------------------------------------------------------------|

E|----------------------------------------------------------|
B|---------------------------------------0--------1---------|
G|---2--------------------0--0-----0--0-----0--0-----0--0---|
D|------5--5-----5--5--3------------------------------------|
A|---3--------3--------3--------3--------3--------3---------|
E|----------------------------------------------------------|

E|-----------------------------------------|
B|-----------------------------------------|
G|------0--0-----0--0-----0--0-----0--0---| O|
D|---2------------------------------------| O|
A|---3--------3--------3--------3----------|
E|-----------------------------------------|
Otros videos de esta canción
    4 exhibiciones
      • ½ Tono
      • A
      • Bb
      • B
      • C
      • Db
      • D
      • Eb
      • E
      • F
      • F#
      • G
      • Ab
    • Agregar a la lista

    Afinação da cifra

    Afinador online

      Ops (: Contenido disponible solo en portugués.
      OK