Cifra Club

Oats In The Water

Ben Howard

Tablatura: Principal (guitarra)
Tom: F
Afinação: D A D D A C#

Intro:

C#|--------------------------|----------------------|----------------------|
A|--------------------------|----------------------|----------------------|
D|--------------------------|----------------------|----------------------|
D|------0-------0-----------|------0-------0-------|------0-------0-------|
A|---5---5---5---5---5-(9x)-|---7---7---7---7---7--|---8---8---8---8---8--|
D|--0-------0-------0--- ---|--0-------0-------0---|--0-------0-------0---|

C#|-------------------------------------------------------------|
A|-------------------------------------------------------------|
D|-------------------------------------------------------------|
D|------0-------------10-------------10--------10---------10---|
A|---8---8---8---10/12--12/10----10---10---10---10----10---10--|
D|--0-------0-------------------10--------10---------10--------|

C#|-------------------------------------------------------------|
A|-------------------------------------------------------------|
D|-------------------------------------------------------------|
D|------10------------8--------8---------8---------------------|
A|-10/12--12/10----8---8----8---8-----8---8--------------------|
D|---------------8---------8---------8-------------------------|

C#|----------------------|----------------------|
A|----------------------|----------------------|
D|----------------------|----------------------|
D|------0-------0-------|------0-------0-------|
A|---5---5---5---5---5--|---5---5---5---5---5--|
D|--0-------0-------0---|--0-------0-------0---|


Go your way...

C#|--------------------------|----------------------|----------------------|
A|--------------------------|----------------------|----------------------|
D|--------------------------|----------------------|----------------------|
D|------0-------0-----------|------0-------0-------|------0-------0-------|
A|---5---5---5---5---5------|---7---7---7---7---7--|---8---8---8---8---8--|
D|--0-------0-------0-------|--0-------0-------0---|--0-------0-------0---|

C#|-------------------------------------------------------------|
A|-------------------------------------------------------------|
D|-------------------------------------------------------------|
D|------0-------------10-------------10--------10---------10---|
A|---8---8---8---10/12--12/10----10---10---10---10----10---10--|
D|--0-------0-------------------10--------10---------10--------|

C#|-------------------------------------------------------------|
A|-------------------------------------------------------------|
D|-------------------------------------------------------------|
D|------10------------8--------8---------8---------------------|
A|-10/12--12/10----8---8----8---8-----8---8--------------------|
D|---------------8---------8---------8-------------------------|
reproducciones 627
Acordes para:
    Composição: Ben Howard Colaboración y revision:
    • Marcelo Boscato

    0 comentarios

    mostrar más comentarios

    ¿Conseguiste tocar?

    4 tocaron 1 aún no

    ¡Graba un vídeo tocando Oats In The Water y envianoslo!

    00:00 / 00:00
    outros vídeos desta música
    repetir qualidade Automático
    Outros vídeos desta música
    00:00 / 00:00
    Automático
    OK