Cifra Club

Promise

Ben Howard

Tablatura: Principal (guitarra)
Tom: D
Fiz essa adaptação com uma afinação alternativa 
para ser tocada sem o uso de Capotraste. 
A afinação de ser na seguinte ordem (da 1ª à 6ª) 
D|A|G|D|G|D

Primeiros arranjos;
            (4x)                      (4x)
D|-------------------------|-------------------------|
A|-------------12----------|-------------12----------|
G|-------------------------|-------------------------|
D|-------0---------------0-|-------0---------------0-|
G|----11--------------11---|----0---------------0----|
D|-0--------0------0-------|-9--------9------9-------| 

Arranjo 2;   
           (3x)
D|-------------------------|--------------------------|
A|-------------12----------|--------------12----------|
G|-------------------------|--------------------------|
D|-------0---------------0-|-------0----------------0-|
G|----11--------------11---|----9----------------9----|
D|-0--------0------0-------|-0---------0------0-------|

D|-------------------------|
A|-------------12----------|
G|-------------------------|
D|-------0---------------0-|  (4x)
G|----0---------------0----|
D|-9--------9------9-------|

Arranjo 3; "And maybe, just maybe, I'll come home"

D|-------------------------|
A|-------------12----------|
G|-------------------------|
D|-------0---------------0-| (4x)
G|----9---------------9----|
D|-11-------11-----11------| 

Arranjo 4;
                      (3x)                     
D|----------|----0-------------------|----0---------|
A|-------12-|------------------------|--------------|
G|----------|-------------0----------|--------------|
D|------0---|----------------------0-|------------0-|
G|----11----|----------11-------11---|---------11---|
D|-0--------|-0-----0--------0-------|-0-----0------|

                       (3x)                     |
D|----------|----0-------------------|----0-----0--|
A|-------12-|------------------------|----------0--|
G|----------|-------------0----------|----------0--|
D|------0---|----------------------0-|------0---0--|
G|----11----|----------11-------11---|----------11-|
D|-0--------|-0-----0--------0-------|-0--------0--|

                       (3x)                     |
D|----------|----0-------------------|----0-----0--|
A|-------12-|------------------------|----------0--|
G|----------|-------------0----------|----------0--|
D|------0---|----------------------0-|------0---0--|
G|----11----|----------11-------11---|----------11-|
D|-9--------|-9-----9--------9-------|-9--------9--|

Arrajo 5; "Who am I darling to ya..."      
                       |            |            |
D|-----------------------------------------------0----|
A|-------12--------10---------9------------10p9--0----|
G|------------------------------0----------------0----|
D|------0--------------0------------0------------0----|
G|----11--------11-----11-----------11-----------11---|
D|-0---------0---------0---0--------0---0--------0--0-|

                       |            |            |
D|-----------------------------------------------0----|
A|-------12--------10---------9------------10p0--0----|
G|------------------------------0----------------0----|
D|------0--------------0------------0------------0----|
G|----11--------11-----11-----------11-----------11---|
D|-9---------9---------0---9--------0---9--------0--0-|

                       |            |                |
D|---------------------------------------------------0----|
A|-------12--------10---------9------------9h10p9p0--0----|
G|------------------------------0--------------------0----|
D|------0--------------0------------0----------------0----|
G|----11--------11-----11-----------11---------------11---|
D|-0---------0---------0---0--------0---0------------0--0-|

                       |            |            |
D|-----------------------------------------------0----|
A|-------12--------10---------9------------10p0--0----|
G|------------------------------0----------------0----|
D|------0--------------0------------0------------0----|
G|----11--------11-----11-----------11-----------11---|
D|-9---------9---------0---9--------0---9--------0--0-|

                       |            |               
D|-----------------------------------------0--------|
A|-------12--------10---------9---------------------|
G|------------------------------0-------------0-----|
D|------0--------------0------------0---------------|
G|----11--------11-----11-----------11----------11--|
D|-0---------0---------0---0--------0---0-----------|

                       |            |            |
D|-----------------------------------------------0----|
A|-------12--------10---------9------------10p0--0----|
G|------------------------------0----------------0----|
D|------0--------------0------------0------------0----| 
G|----11--------11-----11-----------11-----------11---|
D|-9---------9---------0---9--------0---9--------0--0-|

[...]
reproducciones 197
Acordes para:
    Composição: Ben Howard Colaboración y revision:
    • Melqui Brito
    • Melqui Brito

    0 comentarios

    mostrar más comentarios

    ¿Conseguiste tocar?

    0 tocaron 2 aún no

    ¡Graba un vídeo tocando Promise y envianoslo!

    00:00 / 00:00
    outros vídeos desta música
    repetir qualidade Automático
    Outros vídeos desta música
    00:00 / 00:00
    Automático
    OK