Cifra Club

La Del Toro

Bersuit Vergarabat

Cifrado: Principal (guitarra y guitarra eléctrica)
tono: C
La intro: 

1|-12-13----12------------------------------------- 
2|-------15----13-15-12-13----------12-12-12/13/12 
3|-------------------------14-13-14---------------- 
4|------------------------------------------------- 
5|------------------------------------------------- 
6|------------------------------------------------- 

1|------------------------------------------------- 
2|----------12-13---15--17------------------------- 
3|------14----------------------------------------- 
4|--14--------------------------------------------- 
5|------------------------------------------------- 
6|------------------------------------------------- 

El solo: 

1|-------------------------------------------------------8-7------- 
2|---------------------------------------------8-9-10--8-----10-8-- 
3|--------------------7------------------7-8-9--------------------- 
4|-------------7-9-10---10--9/10/9----10--------------------------- 
5|------7-8-10----------------------------------------------------- 
6|-8-10------------------------------------------------------------ 

1|--------------12-12--12-12--12-12--12-12--12-12-12--13-13--13-13--13-13-- 
2|----10-13--15^-----15^----15^-----15^---15^-------16^----16^----16^--16^- 
3|-12---------------------------------------------------------------------- 
4|------------------------------------------------------------------------- 
5|------------------------------------------------------------------------- 
6|------------------------------------------------------------------------- 

1|-12---------------------------------------------------------------------- 
2|----------12--------------12--12/13/12/10-------------------------------- 
3|----13-14-----------13-14------------------9----------------------------- 
4|-----------------14---------------------------10--7---------------------- 
5|-----------------------------------------------------7------------------- 
6|--------------------------------------------------------8---5------------
00:00 / 00:00
Otros videos de esta canción
Repetir
Otros videos de esta canción
Composición de Cordera / Suarez
Colaboración y revisión:
  • José Ferraz
367 vistas
    • ½ Tono
    • A
    • Bb
    • B
    • C
    • Db
    • D
    • Eb
    • E
    • F
    • F#
    • G
    • Ab
  • Agregar a la lista

    0 comentarios

    Ver todos los comentarios
    00:00 / 00:00
    OK