Cifra Club

Halo

Beyoncé

Cifrado: Principal (guitarra y guitarra eléctrica)
Selo Cifra Club: esta cifra foi revisada para atender aos critérios oficiais da nossa Equipe de Qualidade.
tono: A
[Intro] A  Bm  F#m  D

[Tab - Intro]

Parte 1 De 4
   A
E|-9--------9--------9--------9----7--9-----|
B|-----10-------10-------10-----------------|
G|---9----9---9----9---9----9---9-----------|
D|------------------------------------------|
A|-0----------------------------------------|
E|------------------------------------------|

Parte 2 De 4
   Bm
E|-10---------10-----------10----9----------|
B|------12----------12----------------------|
G|---11----11----11----11-----11---11-------|
D|------------------------------------------|
A|------------------------------------------|
E|------------------------------------------|

Parte 3 De 4
               F#m
E|-7h9p7---------------5-------5------------|
B|-------10-9--7---7-------7-------7--------|
G|---------------6---6---6---6---6---6------|
D|------------------------------------------|
A|------------------------------------------|
E|------------------------------------------|
            
Parte 4 De 4
            D 
E|-5-7-5-4----------5-------5-------5-4-2-0-|
B|----------7---7-------7-----7---7---------|
G|------------7---7---7---7-----7-----------|
D|----------0-------------------------------|
A|------------------------------------------|
E|------------------------------------------|

[Primeira Parte]

A                         Bm
  Remember those walls I built
                             F#m
Well Baby they are tumbling down
                               D
And they didn't even put up a fight
                         A   
They didn't even make a sound
                         Bm
I found a way to let you in
                          F#m 
But I never really had a doubt
                               D
Standing in the light of your halo
                A 
I got my angel now
                        Bm                    
It's like I've been awaken
                      F#m
Every rule I had to break
                          D
It's the risk that I'm taking
                             A
I ain't never gonna shut you out

[Refrão] 

                        Bm
Everywhere I'm looking now
                           F#m
I'm surrounded by your embrace
                     D
Baby I can see your halo
                            A
You know you're my saving grace
                              Bm
You're everything I need and more
                            F#m
It's written all over your face
                      D
Baby I can feel your halo
                     A
Pray it won't fade away
  
I can feel your halo
                Bm
I can see your halo
                 F#m
I can feel your halo
                D  
I can see your halo

[Segunda Parte]

A                       Bm
  Hit me like a ray of sun
                             F#m
Burning through my darkness night
                            D
You're the only one that I want
                        A
I got addicted to your lie
                         Bm
I swore I'd never fall again
                               F#m
But this don't even feel like falling
                  D
Gravity can't forget
                         A
To pull me back to the ground again
                        Bm
It's like I've been awaken
                      F#m
Every rule I had to break
                          D
It's the risk that I'm taking
                         A 
I'm never gonna shut you out

[Refrão] 

                        Bm
Everywhere I'm looking now
                           F#m
I'm surrounded by your embrace
                     D
Baby I can see your halo
                            A
You know you're my saving grace
                              Bm
You're everything I need and more
                            F#m
It's written all over your face
                      D
Baby I can feel your halo
                     A
Pray it won't fade away

I can feel your halo
                Bm
I can see your halo
                 F#m
I can feel your halo
                D
I can see your halo

[Ponte]

( A )

Bm      F#m  D
   Halo
   A  Bm  F#m  D
Halo

[Refrão] 

A                         Bm
  Everywhere I'm looking now
                           F#m
I'm surrounded by your embrace
                     D
Baby I can see your halo
                            A
You know you're my saving grace
                              Bm
You're everything I need and more
                            F#m
It's written all over your face
                      D
Baby I can feel your halo
                  A
Pray won't fade away

I can feel your halo
                Bm
I can see your halo
                 F#m
I can feel your halo
                D   A
I can see your halo
Otros videos de esta canción
    1.073.360 exhibiciones
    • Simplificar cifrado
      • ½ Tono
      • A
      • Bb
      • B
      • C
      • Db
      • D
      • Eb
      • E
      • F
      • F#
      • G
      • Ab
    • Agregar a la lista

    Afinación de cifrado

    Afinador online

      OK