Cifra Club

Aprenda

Love On Top

Beyoncé

Tablatura: Principal (guitarra)
Tom: C
Intro 2x: C7M  F#7(11+)  F7M
          F/G  G#7M  G7(4)

  C7M  F#7(11+)  F7M  F/G  G#7M  G7(4)
E|-3----------------------------------------|
B|-5-----1--------1----1-----4----3---------|
G|-4-----3--------2----2-----5----5---------|
D|-------2--------2----3-----5----3---------|
A|-3----------------------------------------|
E|-------2--------1----3-----4----3---------|


Parte 1
   C7M
E|----3--3-x-3---3-3------------------------|
B|-5--5--5-x-5---5-5------------------------|
G|-4--4--4-x-4---4-4------------------------|
D|-5--5----------5-5------------------------|
A|-3-----------3-x---0----------------------|
E|---------------x--------------------------|


Parte 2
   F#7(11+)
E|------------------------------------------|
B|-1--1--1-x-1---1-1------------------------|
G|-3--3--3-x-3---3-3------------------------|
D|-2--2--2-x-2---2-2------------------------|
A|---------------x--------------------------|
E|-2-----------2-x---0----------------------|


Parte 3
   F7M
E|------------------------------------------|
B|-1--1--1-x-1---1-1------------------------|
G|-2--2--2-x-2---2-2------------------------|
D|-2--2--2-x-2---2-2------------------------|
A|---------------x--------------------------|
E|-1-----------1-x---0----------------------|


Parte 4
   F/G       G#7M  G7(4)
E|------------------------------------------|
B|-1--1-1-----4------3----------------------|
G|-2--2-2-----5------5----------------------|
D|-3--3-3-----5------3----------------------|
A|----x-------------------------------------|
E|-3--x---3---4------3----------------------|


Primeira Parte:

Parte 1
   C7M
E|----3--3-x-3---3-3------------------------|
B|-5--5--5-x-5---5-5------------------------|
G|-4--4--4-x-4---4-4------------------------|
D|-5--5----------5-5------------------------|
A|-3-----------3-x---0----------------------|
E|---------------x--------------------------|


Parte 2
   F#7(11+)
E|------------------------------------------|
B|-1--1--1-x-1---1-1------------------------|
G|-3--3--3-x-3---3-3------------------------|
D|-2--2--2-x-2---2-2------------------------|
A|---------------x--------------------------|
E|-2-----------2-x---0----------------------|

Parte 3
   F7M
E|------------------------------------------|
B|-1--1--1-x-1---1-1------------------------|
G|-2--2--2-x-2---2-2------------------------|
D|-2--2--2-x-2---2-2------------------------|
A|---------------x--------------------------|
E|-1-----------1-x---0----------------------|

Parte 4
   G#7M      G7(4)
E|------------------------------------------|
B|-4--4-4-----3--3-3------------------------|
G|-5--5-5-----5--5-5------------------------|
D|-5--5-5-----3--3-3------------------------|
A|----x----------x--------------------------|
E|-4--x---4---3--x---3----------------------|

Parte 1
   C7M
E|----3--3-x-3---3-3------------------------|
B|-5--5--5-x-5---5-5------------------------|
G|-4--4--4-x-4---4-4------------------------|
D|-5--5----------5-5------------------------|
A|-3-----------3-x---0----------------------|
E|---------------x--------------------------|

Parte 2
   F#7(11+)
E|------------------------------------------|
B|-1--1--1-x-1---1-1------------------------|
G|-3--3--3-x-3---3-3------------------------|
D|-2--2--2-x-2---2-2------------------------|
A|---------------x--------------------------|
E|-2-----------2-x---0----------------------|

Parte 3
   F7M
E|------------------------------------------|
B|-1--1--1-x-1---1-1------------------------|
G|-2--2--2-x-2---2-2------------------------|
D|-2--2--2-x-2---2-2------------------------|
A|---------------x--------------------------|
E|-1-----------1-x---0----------------------|

Parte 5
  F/G
E|------------------------------------------|
B|-1--1--1-x-1---1-1------------------------|
G|-2--2--2-x-2---2-2------------------------|
D|-3--3--3-x-3---3-3------------------------|
A|---------------x--------------------------|
E|-3-----------3-x---3----------------------|


 C7M
Honey, honey
                F#7(11+)
I can see the stars
                  F7M
All the way from here
           G#7M     F/G
Can't you see the glow
           C7M
On the window pane
                F#7(11+)
I can feel the sun
                 F7M
Whenever you're near
                F/G
Every time you touch me

I just melt away

Pré-refrão:

Pré-refrão:

  Dm7(9)
E|------------------------------------------|
B|-5--5--5-x-5---5-5------------------------|
G|-5--5--5-x-5---5-5------------------------|
D|-3--3--3-x-3---3-3------------------------|
A|-5-----------5-x---0----------------------|
E|---------------x--------------------------|
      ↓          ↓ ↑

  G7(4/13)
E|------------------------------------------|
B|-5--5--5-x-5---5-5------------------------|
G|-5--5--5-x-5---5-5------------------------|
D|-3--3--3-x-3---3-3------------------------|
A|---------------x--------------------------|
E|-3-----------3-x---0----------------------|
      ↓          ↓ ↑

  Em7
E|------------------------------------------|
B|-6--6--6-x-6---6-6------------------------|
G|-7--7--7-x-7---7-7------------------------|
D|-9--9--9-x-9---9-9------------------------|
A|-7-----------7-x---0----------------------|
E|---------------x--------------------------|
      ↓          ↓ ↑

  A7(13-)
E|------------------------------------------|
B|-6--6--6-x-6---6-6------------------------|
G|-6--6--6-x-6---6-6------------------------|
D|-5--5--5-x-5---5-5------------------------|
A|---------------x--------------------------|
E|-5-----------5-x---0----------------------|
      ↓          ↓ ↑

  Dm7(9)
E|------------------------------------------|
B|-5--5--5-x-5---5-5------------------------|
G|-5--5--5-x-5---5-5------------------------|
D|-3--3--3-x-3---3-3------------------------|
A|-5-----------5-x---0----------------------|
E|---------------x--------------------------|
      ↓          ↓ ↑

  G7(4/13)
E|------------------------------------------|
B|-5--5--5-x-5---5-5------------------------|
G|-5--5--5-x-5---5-5------------------------|
D|-3--3--3-x-3---3-3------------------------|
A|---------------x--------------------------|
E|-3-----------3-x---0----------------------|
      ↓          ↓ ↑

     Dm7(9)
Now, everybody asks me
          G7(4/13)              Em7
Why I'm smiling out from ear to ear
        A7(13-)
But I know
 Dm7(9)
Nothing's perfect but it's worth it
G7(4/13)                   Em7
After fighting through my tears
                               F/G
And, finally, you put me first

Preparação Refrão:

  Em7                              F/G
E|------------------------------------------|
B|-6--6--6-x-6----------------------1-1-----|
G|-7--7--7-x-7----------------------2-2-----|
D|-9--9--9-x-9----------------------3-3-----|
A|-7-----------7-------3---3-5-6/7----------|
E|-----------------3-5---5----------3-3-----|
      ↓          

Refrão:

Parte 1
   C7M
E|----3--3-x-3---3-3------------------------|
B|-5--5--5-x-5---5-5------------------------|
G|-4--4--4-x-4---4-4------------------------|
D|-5--5----------5-5------------------------|
A|-3-----------3-x---0----------------------|
E|---------------x--------------------------|
      ↓          ↓ ↑

Parte 2
   F#7(11+)
E|------------------------------------------|
B|-1--1--1-x-1---1-1------------------------|
G|-3--3--3-x-3---3-3------------------------|
D|-2--2--2-x-2---2-2------------------------|
A|---------------x--------------------------|
E|-2-----------2-x---0----------------------|
      ↓          ↓ ↑

Parte 3
   F7M
E|------------------------------------------|
B|-1--1--1-x-1---1-1------------------------|
G|-2--2--2-x-2---2-2------------------------|
D|-2--2--2-x-2---2-2------------------------|
A|---------------x--------------------------|
E|-1-----------1-x---0----------------------|
      ↓          ↓ ↑

Parte 4
  F/G
E|------------------------------------------|
B|-1--1--1-x-1---1-1------------------------|
G|-2--2--2-x-2---2-2------------------------|
D|-3--3--3-x-3---3-3------------------------|
A|---------------x--------------------------|
E|-3-----------3-x---3----------------------|
      ↓          ↓ ↑

Parte 1
   C7M
E|----3--3-x-3---3-3------------------------|
B|-5--5--5-x-5---5-5------------------------|
G|-4--4--4-x-4---4-4------------------------|
D|-5--5----------5-5------------------------|
A|-3-----------3-x---0----------------------|
E|---------------x--------------------------|
      ↓          ↓ ↑

Parte 2
   F#7(11+)
E|------------------------------------------|
B|-1--1--1-x-1---1-1------------------------|
G|-3--3--3-x-3---3-3------------------------|
D|-2--2--2-x-2---2-2------------------------|
A|---------------x--------------------------|
E|-2-----------2-x---0----------------------|
      ↓          ↓ ↑

Parte 3
   F7M
E|------------------------------------------|
B|-1--1--1-x-1---1-1------------------------|
G|-2--2--2-x-2---2-2------------------------|
D|-2--2--2-x-2---2-2------------------------|
A|---------------x--------------------------|
E|-1-----------1-x---0----------------------|
      ↓          ↓ ↑

Parte 5
   F/G  G#7M  G7(4)
E|------------------------------------------|
B|-1-----4------3---------------------------|
G|-2-----5------5---------------------------|
D|-3-----5------3---------------------------|
A|------------------------------------------|
E|-3-----4------3---------------------------|
      ↓          ↓ ↑

(repete refrão todo e substitui a parte 5 pela parte 6)

Parte 6
   G#7M      G7(4)
E|------------------------------------------|
B|-4--4-4-----3--3-3------------------------|
G|-5--5-5-----5--5-5------------------------|
D|-5--5-5-----3--3-3------------------------|
A|----x----------x--------------------------|
E|-4--x---4---3--x---3----------------------|

            C7M
Baby, it's you
                  F#7(11+)
You're the one I love
                  F7M
You're the one I need
                       F/G
You're the only one I see
                     C7M
Come on, baby, it's you
                               F#7(11+)
You're the one that gives your all
                             F7M
You're the one I can always call
                                  F/G
When I need you make everything stop
      G#7M          G7(4)   C7M
Finally you put my love on top
     F#7(11+)
Come on, baby      
                    F7M
You put my love on top

                F/G
Top, top, top, top
                    C7M
You put my love on top
 F#7(11+)
Come on, baby
                    F7M
You put my love on top
                G#7M
Top, top, top, top
            G7(4)
My love on top

Segunda Parte:

       C7M
Baby, baby
                F#7(11+)
I can feel the wind
                  F7M
Whipping past my face
       G#7M      G7(4)  C7M
As we dance the night away
                F#7(11+)
Boy, your lips taste 
                     F7M
Like a night of champagne
                F/G
As I kiss you again and again

And again and again

Pré-refrão:

     Dm7(9)
Now, everybody asks me
          G7(4/13)              Em7
Why I'm smiling out from ear to ear
        A7(13-)
But I know
 Dm7(9)
Nothing's perfect but it's worth it
G7(4/13)                   Em7
After fighting through my tears
                               F/G
And, finally, you put me first

Refrão:

            C7M
Baby, it's you
                  F#7(11+)
You're the one I love
                  F7M
You're the one I need
                       F/G
You're the only one I see
                     C7M
Come on, baby, it's you
                               F#7(11+)
You're the one that gives your all
                             F7M
You're the one I can always call
                                  F/G
When I need you make everything stop
      G#7M          G7(4)   C7M
Finally you put my love on top
     F#7(11+)
Come on, baby      
                    F7M
You put my love on top

                F/G
Top, top, top, top
                    C7M
You put my love on top
 F#7(11+)
Come on, baby
                    F7M
You put my love on top
                G#7M
Top, top, top, top

            G7(4)
My love on top

Refrão em C#:

            C#7M
Baby, it's you
                  G7(11+)
You're the one I love
                  F#7M
You're the one I need
                         F#/G#
You're the only thing I see
                     C#7M
Come on, baby, it's you
                               G7(11+)
You're the one that gives your all
                             F#7M
You're the one I can always call
                                  A7M
When I need you baby everything stop
      G#7(4)
Finally you put my love on 

Refrão em D:

 D7M
Top, baby
                       G#7(11+)
You're the one that I love
                   G7M
Baby you're all I need
                       G/A
You're the only one I see
                     D7M
Come on, baby, it's you
                               G#7(11+)
You're the one that gives your all
                         G7M
You're the one I always call
                             A#7M
When I need you everything stop
      A7(4)
Finally you put my love on

Refrão em D#:

 D#7M
Top, baby
                              A7(11+)
'Cause you're the one that I love
                            G#7M
Baby you're the one that I need
                       G#/A#
You're the only one I see
                  D#7M
Baby, baby, it's you
                               A7(11+)
You're the one that gives your all
                         G#7M
You're the one I always call
                             B7M
When I need you everything stop
      A#7(4)
Finally you put my love on

Refrão em E:

 E7M
Top, baby
                              A#7(11+)
'Cause you're the one that I love
                       A7M
Baby you're the one I need
                       A/B
You're the only one I see
                     E7M
Come on, baby, it's you
                               A#7(11+)
You're the one that gives your all
                         A7M
You're the one I always call
                             C7M
When I need you everything stop
      B7(4)                 Em7
Finally you put my love on top
Compositor Beyoncé Knowles / Shea Taylor / Terius Nash
Colaboración y revision:
  • Leandro Sandim
  • wederson menezes
2.429 reproducciones
    • ½ Tom
    • A
    • Bb
    • B
    • C
    • Db
    • D
    • Eb
    • E
    • F
    • F#
    • G
    • Ab
  • Adicionar à lista

    0 comentarios

    Mostrar mais comentários

    ¿Conseguiste tocar?

    11 Tocaron 2 Ainda não

    Grave um vídeo tocando Love On Top e mande pra gente!

    00:00 / 00:00
    outros vídeos desta música
    repetir qualidade Automático
    Outros vídeos desta música
    00:00 / 00:00
    Automático
    Capítulos
    • Tocando a Música
    • Dicas Iniciais / Equipamentos
    • Acordes da Introdução
    • Tocando a Introdução
    • Ensinando a Introdução
    • Introdução - Parte 1 de 4
    • Introdução - Parte 2 de 4
    • Introdução - Parte 3 de 4
    • Introdução - Parte 4 de 4
    • Dicas para a Primeira Parte
    • Tocando a Primeira Parte
    • Ensinando a Primeira Parte
    • Primeira Parte - Parte 1 de 5
    • Primeira Parte - Parte 2 de 5
    • Primeira Parte - Parte 3 de 5
    • Primeira Parte - Parte 4 de 5
    • Primeira Parte - Parte 5 de 5
    • Acordes do Pré-Refrão
    • Tocando o Pré-Refrão
    • Ensinando o Pré-Refrão
    • Dicas para o Refrão
    • Tocando o Refrão
    • Ensinando o Refrão
    • Dicas e Acordes para as repetições do Refrão
    • Tocando as repetições do Refrão
    • Encerramento
    • Ficha Técnica
    OK