Cifra Club

A Semente

Bezerra da Silva

Cifrado: Principal (guitarra y guitarra eléctrica)
tono: F
[Intro] Gm  A7  Dm 
        Gm  A7  Dm

[Solo]

E|--10-10-10--10--9--12--------15-|----12--15--12-9------13----10--|
B|--------------------------------|------------------10------------|
G|--------------------------------|--------------------------------|
D|--------------------------------|--------------------------------|
A|--------------------------------|--------------------------------|
E|--------------------------------|--------------------------------|

E|----13----10---13----10--|-------------12--------12---10--------|
B|-------| B|-------------------------|-----10------------------------|
G|-------------------------|---------10---------------------------|
D|-------------------------|--------------------------------------|
A|-------------------------|--------------------------------------|
E|-------------------------|--------------------------------------|

E|-----9--10--12--13--10----------|----10--13--12--10-------------|
B|----------------------------10--|--------------------10---------|
G|--------------------------------|-------------------------------|
D|--------------------------------|-------------------------------|
A|--------------------------------|-------------------------------|
E|--------------------------------|-------------------------------|

        Gm         A7                Dm 
Meu vizinho jogou uma semente no seu quintal
            Gm         A7         Dm
De repente brotou um tremendo matagal

                        Gm              A7                 Dm
Quando alguem lhe perguntava que mato é esse que eu nunca vi
              Gm                A7                Dm
Ele só respondia não sei não conheço isso nasceu ai (2x)

                    Gm               A7               Dm
Mas foi pintando sujeira o patamo estava sempre na jogada
                    Gm                  A7             Dm
Porque o cheiro era bom e ali sempre estava uma rapaziada
                 Gm                 A7              Dm
Os homens desconfiaram ao ver todo dia uma aglomeração
                   Gm                   A7                  Dm
E deram o bote perfeito e levaram todos eles para averiguação, i dae...
   Gm                A7              Dm
Na hora do sapeca aiaá o safado contou...
                 Gm                    A7               Dm
Não precisa me bater que eu dou de bandeja tudo pro senhor
                          Gm                A7               Dm
Olha aí eu conheço aquele mato chefia e também sei quem plantou
                Gm                   A7                 Dm
Quando os federais grampearam e levaram o vizinho inocente
                                Gm                  A7                 Dm
Na delegacia ele disse doutor não sou agricultor desconheço a semente 
00:00 / 00:00
Otros videos de esta canción
Repetir
Otros videos de esta canción
Composición de Felipão / Roxinho / Tião Miranda / Walmir da Purificação
Colaboración y revisión:
2.788 exhibiciones
    • ½ Tono
    • A
    • Bb
    • B
    • C
    • Db
    • D
    • Eb
    • E
    • F
    • F#
    • G
    • Ab
  • Agregar a la lista
    00:00 / 00:00
    OK