Cifra Club

Bromélias

Bidê ou Balde

Cifrado: Principal (guitarra y guitarra eléctrica)
Acompaña nuestras novedades de Cifra Club en español.
¡Sigue nuestro perfil en Instagram!
tono: E
    E   A    F#m   A
E|------------------------------------------------------9-7-9-12-9-7-------------|
B|-9-7---7-9-7--7-------------5------9-7--7-9-7--7-------------------------------|
G|-----9------9---9-----6-4-6---6-4------9-----9---9-----------------------------|
D|-------------------------------------------------------------------------------|
A|-------------------------------------------------------------------------------|
E|-------------------------------------------------------------------------------|

E             A            F#m            A
    Não fique triste se eu não liguei pra te avisar
E          A       F#m             A
    Você estava no escritório e eu fui embora
E           A            F#m         A            E
    Deixei aguadas as bromélias penduradas da sua mãe
                 F#m        A      (Am Am7 Am)
        E aquele cara na saleta da TV é o meu pai

(refrão)
C#m                                       B     F#m
Avise, se puder, nossos amigos que eu não vou mudar.
C#m                                     B     F#m
Em todos os lugares que você estiver eu vou estar
           A                  C#m                    A
Perto de você, eu não pude ficar, tente não me esquecer,
                     (Am Am7 Am)
Vou tentar sempre te amar!!

E              A       F#m           A
    Recém - chegado, entediado, na rodoviária
E             A            F#m                A
    Tentei ligar mas, você não estava, deu na secretária
E            A       F#m          A            E
    Deixei recado avisando que te amo e vou voltar
       F#m        A         (Am Am7 Am)
Aquela calça pendurada no varal é do Rangel

C#m                                       B     F#m
Avise, se puder, nossos amigos que eu não vou mudar.
C#m                                     B     F#m
Em todos os lugares que você estiver eu vou estar
           A                  C#m                    A
Perto de você, eu não pude ficar, tente não me esquecer,
                     (Am Am7 Am)
Vou tentar sempre te amar!!

   E   A   F#m   A   A/B   A/F#     G#m  C#m  F#m  Am Am7 Am
E|--------------------9-7-9-12-9-7-----9-7-9-12-9-7------9-7-9-12-9-7----|
B|-9-7--7-9-7--7---------------------------------------------------------|
G|-----9-----9---9-------------------------------------------------------|
D|-----------------------------------------------------------------------|
A|-----------------------------------------------------------------------|
E|-----------------------------------------------------------------------|

C#m                                       B     F#m
Avise, se puder, nossos amigos que eu não vou mudar.
C#m                                     B     F#m
Em todos os lugares que você estiver eu vou estar
           A                  C#m                    A
Perto de você, eu não pude ficar, tente não me esquecer,
                     (Am Am7 Am)
Vou tentar sempre te amar!!

( E )
Composición de Bide Ou Balde
Colaboración y revisión:
  • Leandro Matos
  • mauricio lacerda
  • Eduardo Pimentel
402 vistas
    • ½ Tono
    • A
    • Bb
    • B
    • C
    • Db
    • D
    • Eb
    • E
    • F
    • F#
    • G
    • Ab
  • Agregar a la lista

    0 comentarios

    Ver todos los comentarios
    00:00 / 00:00
    Outros vídeos desta música
    Repetir Calidad Automático
    Outros vídeos desta música
    00:00 / 00:00
    Automático
    OK