Cifra Club

Exijo respeito

Bidê ou Balde

Cifrado: Principal (guitarra y guitarra eléctrica)
tono: G
Riff 1  (intro e versos)

     A5      D5      A5     D5     C5
E|--------------x--------------------------------
B|--------------x--------------------------------
G|----------777-x----------777-/--5--------------
D|-77777----777-x- 77777---777-/--5--------------
A|-77777----555-x- 77777---555-/--3--------------
E|-55555--------x- 55555-------------------------


Riff 2 (Refrão)

     A5     G5   E5
E|-----------------------------------------------
B|-----------------------------------------------
G|-----------------------------------------------
D|-7777----55---22-------------------------------
A|-7777----55---22-------------------------------
E|-5555----33---00-------------------------------


Riff 3 (Passagem)

     D5    C5  A5
E|-----------------------------------------------
B|-----------------------------------------------
G|-7777---55-------------------------------------
D|-7777---55--77---------------------------------
A|-5555---33--77---------------------------------
E|------------55---------------------------------


Riff 4 (Ultimo refrão a partir de 2:35)


  D5       C5  A5
E|-----------------------------------------------
B|-----------------------------------------------
G|-7777---55-------------------------------------
D|-7777---55--77---------------------------------
A|-5555---33--77---------------------------------
E|------------55---------------------------------

Introdução: A5  D5

A5                D5
Respeitar mulher é mesmo complicado
A5                         D5
Que elas passam em TPM quase o tempo inteiro
A5                         D5
Quando não estão menstruadas tão com dor de cabeça
A5                         D5
E quando não é a cabeça elas tão com cistite


Refrão:
A5      D5      E5
Eu exijo respeito!
A5      D5      E5
- Como quiser
A5      D5      E5     A5    D5   E5
Você precisa respeitar a sua mulher


A5                 D5
Respeitar mulher é mesmo complicado
A5                    D5
As vezes querem ficar e as vezes ir embora
A5                       D5
E algumas se irritam pelo simples fato
A5                      D5
Da gente nunca entender o que as incomoda


Refrão:
A5      D5      E5
Eu exijo respeito!
A5      D5      E5
- Como quiser
A5      D5      E5     A5    D5   E5
Você precisa respeitar a sua mulher



Riff Passagem (12x)

     D5    C5  A5
E|-----------------------------------------------
B|-----------------------------------------------
G|-7777---55-------------------------------------
D|-7777---55--77---------------------------------
A|-5555---33--77---------------------------------
E|------------55---------------------------------



Refrão:
A5      D5      E5
Eu exijo respeito!
A5      D5      E5
- Como quiser
A5      D5      E5     A5    D5   E5
Você precisa respeitar a sua mulher
Composición de André Surkamp / Carlinhos Carneiro / Katia Aguiar / Leandro Sá
Colaboración y revisión:
  • Lucas Silveira
  • Felipe Teixeira
27 vistas
    • ½ Tono
    • A
    • Bb
    • B
    • C
    • Db
    • D
    • Eb
    • E
    • F
    • F#
    • G
    • Ab
  • Agregar a la lista

    0 comentarios

    Ver todos los comentarios
    00:00 / 00:00
    Outros vídeos desta música
    Repetir Calidad Automático
    Outros vídeos desta música
    00:00 / 00:00
    Automático
    OK