Cifra Club

Melissa

Bidê ou Balde

Cifrado: Principal (guitarra y guitarra eléctrica)
tono: D
Intro 2x: D  E  G  A 

Primeira Parte:

D          G
Te fiz um rock  Melissa.
Em                    A
Pode crer que é sobre amor.
D                 G
Mas eu não sou publicitário
Em                A
e a minha vó é de Bagé.
D           G
Eu te escrevi uma carta
Em                   A
cheia de frases de impacto.
D              G            Em                A
E se precisar alguma coisa pode pedir que eu faço.

Arranjo 1:

    D               G              Em               A           D               G               Em
E|---2-----3-----3---3-----2-------------------------------------2-----3-----3---3-----2-----3-------------|
B|-----3-----3---------3-----3---3---0-----3-----3---2---0---3-----3-----3---------3-----3-------0-----3---|
G|-------------------------------------0-----0-----------------------------------------------------0-----0-|
D|-0-----0-----0-----------------------------------------------0-----0-----0-------------------------------|
A|-------------------------------------------------0---0---0-----------------------------------------------|
E|-----------------3-----3-----3---0-----0-----0-------------------------------3-----3-----3---0-----0-----|

       A           D               G               Em              A             D              G
E|------------------2-----3-----3---3-----2-------------------------------------2-----3------3---3------2--|
B|--3---2---0---3-----3-----3---------3-----3---3---0-----3-----3---2---0---3-----3-----3----------3------3|
G|----------------------------------------------------0-----0----------------------------------------------|
D|----------------0-----0-----0-----------------------------------------------0-----0------0---------------|
A|-0--0---0---0---------------------------------------------------0---0---0--------------------------------|
E|--------------------------------3-----3-----3---0-----0-----0--------------------------------3------3----|

              Em          A
E|----------------------------------|
B|---3---0-----3-----3---2---0---3--|
G|---------0-----0------------------|
D|----------------------------------|
A|---------------------0---0---0----|
E|-3---0-----0-----0----------------|

Refrão:

D                    G                     Em       A
Se tu quiser que eu te leve  eu aprendo a dirigir!
D                    G                     Em       A
Se tu quiser que eu te leve  eu aprendo a dirigir!

Arranjo 2:

E|----------------------------------------------------------------------------------------|
B|----------------------------------------------------------------------------------------|
G|----------------------------------------------------------------------------------------|
D|------------0-2-4---------------------------------0-2-4---------------------------------|
A|-0-2-4-0-5~-------2~-2-4-5----2-4-5----0-2-4-0-5~-------2~-2-4-5----2-4-5----0-2-4-0-5~-|
E|---------------------------3~-------3~---------------------------3~-------3~------------|

( D E G A ) 2x

Segunda Parte:

D          G
Te fiz um mambo  Melissa.
Em             A
Sobre cegos na Polônia.
D                G
E é sobre teu umbigo furado
Em            A
teus olhinhos puxados.
D             G
É sobre a tua pele branquinha
Em               A
pronta pra ficar morena.
D             G
Se não tiver como ir pra praia
Em                A
não precisa nem estalar os dedos

Refrão:

D                    G                     Em       A
Se tu quiser que eu te leve  eu aprendo a dirigir!
D                    G                     Em       A
Se tu quiser que eu te leve  eu aprendo a dirigir!

( D E G A ) 2x

D                    G                     Em       A
Se tu quiser que eu te leve  eu aprendo a dirigir!
D                    G                     Em       A
Se tu quiser que eu te leve  eu aprendo a dirigir!
D                    G                     Em       A
Se tu quiser que eu te leve  eu aprendo a dirigir!
D ...
Melissa!
Composición de Bide Ou Balde
954 vistas
    • ½ Tono
    • A
    • Bb
    • B
    • C
    • Db
    • D
    • Eb
    • E
    • F
    • F#
    • G
    • Ab
  • Agregar a la lista

    0 comentarios

    Ver todos los comentarios
    00:00 / 00:00
    Outros vídeos desta música
    Repetir Calidad Automático
    Outros vídeos desta música
    00:00 / 00:00
    Automático
    OK