Cifra Club

Mesmo Que Mude

Bidê ou Balde

Cifrado: Principal (guitarra y guitarra eléctrica)
tono: A
[Intro] D7M  A7M
        D7M  A7M
        D7M  A7M
        D7M  A7M

  D7M                      A7M
E|----------------------------------------------------|
B|----------------------------------------------------|
G|-----9----7--6-----------6--------------------------|
D|---------------7-9----------7-----------------------| (4x)
A|-9-----------------------------9--------------------|
E|----------------------------------------------------|

(Riff 1)

   D7M                       
E|-4-4--------4-4--2-2--------4-4--------4-4--2-2-----|
B|-2-2--------2-2--2-2--------2-2--------2-2--2-2-----|
G|-2-2--------2-2--2-2--------2-2--------2-2--2-2-----| (2x)
D|-0-0--------0-0--0-0--------0-0--------0-0--0-0-----|
A|----------------------------------------------------|
E|----------------------------------------------------|

   A7M                       
E|-4-4--------4-4--2-2-------4-4--------4-4--2-2------|
B|-2-2--------2-2--2-2-------2-2--------2-2--2-2------|
G|-2-2--------2-2--2-2-------2-2--------2-2--2-2------| (2x)
D|-2-2--------2-2--2-2-------2-2--------2-2--2-2------|
A|-0-0--------0-0--0-0-------0-0--------0-0--0-0------|
E|----------------------------------------------------|

[Primeira Parte]

(Riff 1)

           D7M
Ela vai mudar
                                     A7M
Vai gostar de coisas que ele nunca imaginou
                                   D7M
Vai ficar feliz de ver que ele também mudou
                               A7M
Pelo jeito não descarta uma nova paixão

[Pré-Refrão]

(Riff 2)

  Bm                       C#m
E|-9-9-------9-9--7-7------9-9----------9-9--7-7------|
B|-7-7-------7-7--7-7------7-7----------7-7--7-7------|
G|-7-7-------7-7--7-7------7-7----------7-7--7-7------|
D|-x-x-------x-x--x-x------x-x----------x-x--x-x------|
A|----------------------------------------------------|
E|----------------------------------------------------|

E|-7-7-------7-7--5-5------7-7----------7-7--5-5------|
B|-5-5-------5-5--5-5------5-5----------5-5--5-5------|
G|-6-6-------5-5--5-5------6-6----------5-5--5-5------|
D|-x-x-------x-x--x-x------x-x----------x-x--x-x------|
A|----------------------------------------------------|
E|----------------------------------------------------|

                                     Bm
Mas espera que ele ligue a qualquer hora

Para conversar
                  C#m
E perguntar se é tarde pra ligar
                  Bm
Dizer que pensou nela

Estava com saudade
              C#m      
Mesmo sem ter esquecido que 
    D
Passou

( D7M  A7M )
( D7M  A7M )
 
[Segunda Parte]

(Riff 1)

     D7M
Ele vai mudar
                             A7M
Escolher um jeito novo de dizer "alô”
                                D7M
Vai ter medo de que um dia ela vá mudar
                               A7M  
Que aprenda a esquecer sua velha paixão
                        Bm
Mas evita ir até o telefone

[Pré-Refrão]

(Riff 2)

Para conversar 
              C#m
Pois é muito tarde pra ligar
             Bm  
Tem pensado nela
 
Estava com saudade
              C#m         E
Mesmo sem ter esquecido que

[Refrão]

   D                       A
É sempre amor, mesmo que acabe
    D                     A
Com ele aonde quer que esteja
   D                      A
É sempre amor, mesmo que mude
   D                         E
É sempre amor, mesmo que alguém esqueça o que
    D
É amor

( D7M  A7M )
( D7M  A7M )

[Pré-Refrão]

[Pré-Refrão]

(Riff 2)

Para conversar 
              C#m
Pois é muito tarde pra ligar
             Bm  
Tem pensado nela
 
Estava com saudade
              C#m         E
Mesmo sem ter esquecido que

[Refrão]

   D                       A
É sempre amor, mesmo que acabe
    D                     A
Com ela aonde quer que esteja
   D                      A
É sempre amor, mesmo que mude
   D                         E
É sempre amor, mesmo que alguém esqueça o que
    D
Passou

[Final] D7M  A7M
        D7M  A7M
        D7M  A7M
        D7M  A7M
Composición de Carlinhos Carneiro / Rodrigo Pilla
1.049 vistas
    • ½ Tono
    • A
    • Bb
    • B
    • C
    • Db
    • D
    • Eb
    • E
    • F
    • F#
    • G
    • Ab
  • Agregar a la lista

    0 comentarios

    Ver todos los comentarios
    00:00 / 00:00
    Outros vídeos desta música
    Repetir Calidad Automático
    Outros vídeos desta música
    00:00 / 00:00
    Automático
    OK