Cifra Club

Microondas

Bidê ou Balde

Cifrado: Principal (guitarra y guitarra eléctrica)
Acompaña nuestras novedades de Cifra Club en español.
¡Sigue nuestro perfil en Instagram!
tono: D
Introdução:  D  Em   G  D

Primeira Parte:

    D                            Em                  G             D
Tem coisas lá em casa que eu nem ligo mais, pra não ter que desligar.
  D                        Em               G             D
Pessoas da minha vida parecem sumir, mas insistem em voltar.
 D                         Em           G           D
Amores requentados, feito pão dormido, vem do microondas.
    D                      Em             G                   D
E o bom e velho gosto de romance antigo é sempre bom de recordar.

Segunda Parte:

Arranjo 1:

E|-3---2---0---0-2-3---2---0---0-2-3---2---0---0-2-3---2---0---0-|
B|---3---3---3-------3---3---3-------3---3---3-------3---3---3---|
G|---------------------------------------------------------------|
D|---------------------------------------------------------------|
A|---------------------------------------------------------------|
E|---------------------------------------------------------------|

G             D             Em
Flores que você traz pra me dar...
G               D             Em
Eu não preciso disso pra lembrar.

Refrão:
Arranjo 2:
E|----------------------------------------------------------------------------------------------------------|
B|----------------------------------------------------------------------------------------------------------|
G|-9b10r9-9-7-9-9b10r9-9-7-9-9b10r9-9-7-9-7-9b10r9-9-7-9-9b10r9-9-7-9-9b10r9-9-7-9b10r9-9-7-9-7-9b10r9-9-7~-|
D|----------------------------------------------------------------------------------------------------------|
A|----------------------------------------------------------------------------------------------------------|
E|----------------------------------------------------------------------------------------------------------|

G           D                Em     Bm
Lembro cada beijo que eu te dei!
   G           D               Em     Bm
Eu lembro cada beijo que eu te dei!
   G               D               Em                 G
Só pra lembrar, só pra lembrar, só pra lembrar - mais um!

  Arranjo 3: (D  Em  G  D)
E|-----------------------------------|
B|-----------------------------------|
G|-----------------------------------|
D|-----------------------------------|
A|-7-9-9-7-7-5~--2-5-5-7-9-12-14-17~-|
E|-----------------------------------|

   D                Em                G          D
Eu nunca esperei me encontrar, com você nesse lugar
  D                        Em                     G            D
O que você tem feito? Como vão seus pais? Vamos sair para jantar.
  D                         Em        G           D
O que eu tô dizendo? Eu não acredito! Olha o microondas!
       D                             Em         G                 D
Desse jeito, requentando, eu sei que não existe nada pra descongelar.

Repete Arranjo 1.

G             D             Em
Flores que você traz pra me dar...
G               D             Em
Eu não preciso disso pra lembrar.

Repete Arranjo 2.

G           D                Em     Bm
Lembro cada beijo que eu te dei!
   G           D               Em     Bm
Eu lembro cada beijo que eu te dei!
   G               D               Em                 G
Só pra lembrar, só pra lembrar, só pra lembrar - mais um!

(D  Em  G  D)
Repete Arranjo 3: (D  Em  G  D)

Arranjo 4:

E|-10-------9------7-----7-----5-----2-3-5----10-------9------7-----7-----5----2-3-5----|
B|----10------10-----8-----8-----7---------3~----10------10-----8-----8-----7--------3~-|
G|-------11------9-----7-----7-----6----------------11------9-----7-----7-----6---------|
D|--------------------------------------------------------------------------------------|
A|--------------------------------------------------------------------------------------|
E|--------------------------------------------------------------------------------------|

E|-10-------9------7-----7-----5-----2-3-5----10-------9------7-----7-----5-----2-3-5-2-3-5----|
B|----10------10-----8-----8-----7---------3~----10------10-----8-----8-----7---------------3~-|
G|-------11------9-----7-----7-----6----------------11------9-----7-----7-----6----------------|
D|---------------------------------------------------------------------------------------------|
A|---------------------------------------------------------------------------------------------|
E|---------------------------------------------------------------------------------------------|

Terceira Parte:

    D                        Em                                     G
Parabéns a você nesta data, querida/ Sinto muito mas estou de partida.
                          D
Me disseram que é bom mudar/ mas eu não sei por onde começar
     D                               Em                                G
Por uma noite apenas serei seu, é foda!/ Guaraná é bem melhor que soda
                           D
Não ligue pro que vão dizer/ O Jet set que vá se fuder!
    D                        Em                                        G
Nas festas da playboy não tem só mulher gostosa,/ tem champanhe também.
                               D
E o que você está fazendo em casa
                                D
Ponha uma roupa e o pau pra fora
                     Em                    G
Todo mundo sempre está/ Onde todo mundo vai
                 D                      D
Todo mundo dá palpite/ Todo mundo quer convite.
Compositor não encontrado.
673 vistas
    • ½ Tono
    • A
    • Bb
    • B
    • C
    • Db
    • D
    • Eb
    • E
    • F
    • F#
    • G
    • Ab
  • Agregar a la lista

    0 comentarios

    Ver todos los comentarios
    00:00 / 00:00
    Outros vídeos desta música
    Repetir Calidad Automático
    Outros vídeos desta música
    00:00 / 00:00
    Automático
    OK