Cifra Club

O Antipático

Bidê ou Balde

Cifrado: Principal (guitarra y guitarra eléctrica)
Acompaña nuestras novedades de Cifra Club en español.
¡Sigue nuestro perfil en Instagram!
tono: Eb (con acordes en la forma de D) Capotraste en 1ª casa
Intro:
E|-------75-----------------------2-----------2-------|
B|---------75---0-0-2-2-3-3-5/7-0---5-3-5-3-5---5-3-5-|
G|----------------------------------------------------|
D|--7~~-----------------------------------------------|
A|--7~~-----------------------------------------------|
E|--5~~-----------------------------------------------|

E|---------------------2-----------2------------------|
B|-2-0-0-2-2-3-3-5/7-0---5-3-5-3-5---5-3-5-3/2~-------|
G|----------------------------------------------------|
D|----------------------------------------------------|
A|----------------------------------------------------|
E|----------------------------------------------------|

Bm               G           D                  A
Olha como eu sou antipático, não estou sorrindo pra você,
Bm                 G                D                        A
Não estou fazendo aquelas caras que todo mundo faz quando encontra você!
Bm               G          D                           A
Olha como eu sou repelente, ponho o pé na frente pra te ver cair.
  Bm                      G              D                           A
E se durante a queda você se levanta, eu posso ser eu mesmo e simplesmente rir.

B5 '          G5 '   D      A
Olha como eu estou cagando, pra o que você irá dizer!
B5 '          G5 '   D      A
Olha como eu estou andando, pra bem longe de você!

Bm           G              D                A
Eu não vou ficar sorrindo, só pra ganhar a sua atenção.
Bm                        G                  D                A
Pare de tentar vencer do jeito mais prático, olha como eu sou antipático!
Solo:
E|-----------------------------------------------------|
B|-----------------------------------------------------|
G|-----------------------------------------------------|
D|-----------------------------------------------------|
A|2-5-2-----5--7-5-----2-5~-2-5-2-----5---2-5-2-----5~-|
E|------5-7---7----7-5------------5-7---5-------5-7----|

Bm               G           D                  A
Olha como eu sou antipático, não estou sorrindo pra você.
  Bm                G            D                     A
E nunca vou fazer exatamente, o que você espera que eu vá fazer!

B5           G5    D      A
Olha como eu estou cagando, pra o que você irá dizer!
B5           G5    D      A
Olha como eu estou andando, pra bem longe de você!

Bm           G              D                A
Eu não vou ficar sorrindo, só pra ganhar a sua atenção.
Bm                        G                  D                A
Pare de tentar vencer do jeito mais prático, olha como eu sou antipático!   (2x)

( C5  Ab5  E5  B5 )  (2x)

Bm           G              D                A
Eu não vou ficar sorrindo, só pra ganhar a sua atenção.
Bm                        G                  D                A
Pare de tentar vencer do jeito mais prático, olha como eu sou antipático!   (2x)
Bm Bm  Bm  Bm           G         D         A
Eu não vou ficar...
Compositor não encontrado.
Colaboración y revisión:
  • Jamelli Warpechowski
27 vistas
    • ½ Tono
    • A
    • Bb
    • B
    • C
    • Db
    • D
    • Eb
    • E
    • F
    • F#
    • G
    • Ab
  • Agregar a la lista

    0 comentarios

    Ver todos los comentarios
    00:00 / 00:00
    Outros vídeos desta música
    Repetir Calidad Automático
    Outros vídeos desta música
    00:00 / 00:00
    Automático
    OK