Cifra Club

Pelo menos isso

Bidê ou Balde

Cifrado: Principal (guitarra y guitarra eléctrica)
tono: D
Eu não tenho ninguém mas eu quero você
Todos seus apelidos serão meus reféns
E eu minto quando digo que não estou cuidando
Todos seus movimentos eu já decorei

Eu sou seu amigo - pelo menos isso
Eu sou seu amigo - pelo menos isso é o que eu te digo

Eu não tenho ninguém mas eu quero você
Todos seus inimigos serão meus também
E eu não pretendo parecer um leviano
Estarei ao seu lado até o fim

Eu sou seu amigo - pelo menos isso
Eu sou seu amigo - pelo menos isso é o que eu te digo

intro:


E|----------7------------7---------7---
B|-----8--8---8-------8----8----8----8-
G|-------------------------------------
D|-------------------------------------
A|-------------------------------------
E|-------------------------------------



riff principal:

E|---12~--10--12--10--8--7--8--7-------
B|-------------------------------10~---
G|-------------------------------------
D|-------------------------------------
A|-------------------------------------
E|------------------------------------


versos:

E|-------------------------------------
B|--1----------1---3--1------1---------
G|------4----------------4------2------
D|-------------------------------------
A|-------------------------------------
E|-------------------------------------

E|-------------------------------------
B|--1---0---1---3----1---0----1---3----
G|-------------------------------------
D|-------------------------------------
A|-------------------------------------
E|-------------------------------------



base solo/slide:

E|-------------------------------------
B|-------------------------------------
G|-------------------------------------
D|--5555--3333--2222--000--------------
A|--5555--3333--2222--000--------------
E|-------------------------------------


solo/slide adaptado 

E|-----------------------------------------------------------
B|---10-10--10s8--8s6--6s5--5s3--3s1-1-1-0-1--3~-------------
G|-----------------------------------------------------------
D|-----------------------------------------------------------
A|-----------------------------------------------------------
E|-----------------------------------------------------------

E|--------------------------------------------------------
B|---8-----8s6--6s5--5s3--3s1-----0-1--3--1~--------------
G|--------------------------------------------------------
D|--------------------------------------------------------
A|--------------------------------------------------------
E|--------------------------------------------------------



refrão: "Eu sou seu amigo..."



E|-------------------------------------
B|--1----------1---3--1------1---------
G|------4----------------4------2------
D|-------------------------------------
A|-------------------------------------
E|-------------------------------------

E|-------------------------------------------------------------
B|-------------------1---0----1---3----5---3--5---6------------
G|-------------------------------------------------------------
D|-------------------------------------------------------------
A|-------------------------------------------------------------
E|-------------------------------------------------------------




outro riff:

E|-------------------------------------
B|--17--15--10--12~--------------------
G|-------------------------------------
D|-------------------------------------
A|-------------------------------------
E|-------------------------------------



final 2x:

E|-----12~--12-13--15--12~--12--13--15--17~--15--13------------
B|-------------------------------------------------------------
G|-------------------------------------------------------------        
D|-------------------------------------------------------------
A|-------------------------------------------------------------
E|-------------------------------------------------------------

e repita o solo / slide.
Composición de Andr / Carlinhos Carneiro / Leandro S
Colaboración y revisión:
  • Wesley Souza
17 vistas
    • ½ Tono
    • A
    • Bb
    • B
    • C
    • Db
    • D
    • Eb
    • E
    • F
    • F#
    • G
    • Ab
  • Agregar a la lista

    0 comentarios

    Ver todos los comentarios
    00:00 / 00:00
    Outros vídeos desta música
    Repetir Calidad Automático
    Outros vídeos desta música
    00:00 / 00:00
    Automático
    OK