Cifra Club

Angustia

Bienvenido Granda

Cifrado: Principal (guitarra y guitarra eléctrica)
tono: Cm
Requinto con guitarra al aire
    Cm              C7  Fm
E|---8--8-8-| 8-8-10-11---4--4-4-|
B|--8-------|----------6--------|
G|----------|-------------------|
D|----------|-------------------|
A|----------|-------------------|
E|----------|-------------------|

      G7                      Cm
E|--4--3--3-3-|----------3-----3-|
B|------------|-3--4--6-----3----|
G|------------|------------------|
D|------------|------------------|
A|------------|------------------|
E|------------|------------------|

   Cm             C7     Fm
Angustia de no tenerte aquí
    G7                    Cm
Tormento de no tener tu amor..
   Cm             C7    Fm
Angustia de no besarte más
    G7                      Cm
Nostalgia de no escuchar tu voz...


(Bajeamos con la 5ta. cuerda)

E|-----------|
B|-----------|
G|-----------|
D|-----------|
A|--3--5--7--|
E|-----------|

Fm               Cm
Nunca podré olvidar

(Bajeamos nuevamente con la 5ta. cuerda)

E|-----------|
B|-----------|
G|-----------|
D|-----------|
A|--3--5--7--|
E|-----------|

  Fm                      G7 (y punteamos G#, A#, G# y G7)
Nuestras noches junto al mar

(y bajeamos en la 4ta cuerda...)

E|--------------|
B|--------------|
G|--------------|
D|--5--3--------|
A|--------6--3--|
E|--------------|

    Cm           C7      Fm
Contigo se fue toda ilusión
      G7                  Cm
De angustias llenó mi corazón

(Nuevamente la entrada)
    Cm              C7  Fm
E|---8--8-8-| 8-8-10-11---4--4-4-|
B|--8-------|----------6--------|
G|----------|-------------------|
D|----------|-------------------|
A|----------|-------------------|
E|----------|-------------------|

      G7                      Cm
E|--4--3--3-3-|----------3-----3-|
B|------------|-3--4--6-----3----|
G|------------|------------------|
D|------------|------------------|
A|------------|------------------|
E|------------|------------------|

(y otra vez... sólo cambiamos un poco al final.)
    Cm              C7  Fm
E|---8--8-8-| 8-8-10-11---4--4-4-|
B|--8-------|----------6--------|
G|----------|-------------------|
D|----------|-------------------|
A|----------|-------------------|
E|----------|-------------------|

      G7                      Cm
E|--4--3--3-3-|----------3-----13--|
B|------------|-3--4--6-----12-----|
G|------------|--------------------|
D|------------|--------------------|
A|------------|--------------------|
E|------------|--------------------|

(Y bajeamos nuevamente con la 5ta. cuerda)

E|-----------|
B|-----------|
G|-----------|
D|-----------|
A|--3--5--7--|
E|-----------|

Fm               Cm
Nunca podré olvidar... (etc.)
00:00 / 00:00
Otros videos de esta canción
Repetir
Otros videos de esta canción
Composición de Orlando Brito
48 exhibiciones
    • ½ Tono
    • Am
    • Bbm
    • Bm
    • Cm
    • C#m
    • Dm
    • Ebm
    • Em
    • Fm
    • F#m
    • Gm
    • G#m
  • Agregar a la lista
    00:00 / 00:00
    OK