Cifra Club

Bad Guy

Billie Eilish

Tab de bajo: Principal
(Drop D)

   Gm
G|-----------------|-----------------|-----------------|-----------------|
D|-----------------|-----------------|-----------------|-----------------|
A|-----------------|-----------------|-----------------|-----------------|
D|-5-----5-8-5---5-|---5---5-8-5-3---|-5-----5-8-5---5-|---5---5-8-5-3---|

   Cm				       D7
G|-----------------|-----------------|-----------------|-----------------|
D|-----------------|-------------5---|---------4-------|-----------------|
A|-3-----3-6-3---3-|---3---3-6-3-----|-5-5---5---5-----|-----------------|
D|-----------------|-----------------|---------------0-|---0---0---------|


   Gm
G|-----------------|-----------------|-----------------|-----------------|
D|-----------------|-----------------|-----------------|-----------------|
A|---------1-------|---------1-------|---------1-------|---------1-------|
D|-5-----5---5---5-|---5---5---5-3---|-5-----5---5---5-|---5---5---5-3---|

   Cm				       D7
G|-----------------|-----------------|-----------------|-----------------|
D|---------1-------|---------1---5---|---------4-------|-----------------|
A|-3-----3---3---3-|---3---3---3-----|-5-5---5---5---5-|---5---5---------|
D|-----------------|-----------------|-----------------|-----------------|
00:00 / 00:00
Otros videos de esta canción
Repetir
Otros videos de esta canción
Composición de Billie Eilish / Finneas O'Connell
Colaboración y revisión:
  • Pedro Rossi
  • Lineu Lucas
423 vistas

0 comentarios

Ver todos los comentarios

¿Lograste tocar?

20 Tocaron 0 Aún no

¡Graba un video tocando Bad Guy y envíanoslo!

00:00 / 00:00
OK