Cifra Club

BITTERSUITE

Billie Eilish

Cifrado: Principal (guitarra y guitarra eléctrica)
Selo Cifra Club: esta cifra foi revisada para atender aos critérios oficiais da nossa Equipe de Qualidade.
tono: F#m
[Intro] F#m7(9)  E/G#  A 
        B  C#m9  B

F#m7(9)          E/G#  A       
        I can't fall   in love
B  C#m9  G#m
  with  you         

[Primeira Parte]

               F#m
I've been overseas

I've been havin' dreams
                 C#m
You were in the foyer

I was on my knees
               F#m
Outside of my body

Watchin' from above
                   C#m
I see the way you want me

I wanna be the one

[Pré-Refrão]

F#m                 E/G#  A
    But I gotta be care__ful
                    B  C#m
Gotta watch what I say
                         B
God I hope it all goes away

[Refrão]
       
'Cause
F#m          E/G#  A       
    I can't fall   in love
B  C#m  B
  with you 
 F#m       E/G#  A  B  C#m
No matter how   bad I want to

[Interlúdio] Dm  E7  Am  C

[Refrão 2]

Dm                   E7
   I don't need to breathe

When you look at me

All I see is green 
       Am
And I think that we're in between

Everything I've seen 
        C
In my dream, have it once a week

Can't land on my feet 
        Dm
Can't sleep

Have you underneath all of my beliefs 
          E7
Keep it brief
                  Am
I'll wait in thе suite
             C
Keep me off my feet, mm

[Segunda Parte]

Dm
   You seem so paranoid
E7
   I'm looking at the boys
Am
   I'vе never filled the void
C
  Out of spite
Dm
   You seem so paralyzed
E7
   It's so romanticized
Am
   If this is how I die
C
  That's alright

[Refrão 3]

               Dm
I've been overseas
                  E7
I don't need to breathe

When you look at me

All I see is green 
        Am
And I think that we're in between

Everything I've seen 
        C                          
In my dream, have it once a week
                      
Can't land on my feet 
                Dm
(I've been overseas)

Can't sleep 

Have you underneath all of my beliefs
          E7
Keep it brief
                      Am
I'll see you in the suite

[Terceira Parte]

               C
We can be discrete
                   Dm
But I've been overseas
                       E7
And I've been having dreams
            Am
L'amour de ma vie
         C
Love so bittersweet, mm
          Dm              E7
Open up the door for me, for me
                     Am
'Cause I'm still on my knees
                 C
I'm staying off my feet

[Interlúdio 2] C  Em  D  Am
               C  Em  D  Am 

I got ya
Just want you to touch me
Come on, ha
I know it seems to
Just be the beginning 
Listen up, hm
I want you to keep on doing it
It's something I don't know
I've never paid this much
attention to you, I know 

[Final] C  Em  D  Am
        C  Em  D  Am
        C  Em  D  Am

[Tab - Final]

Parte 1 de 3
   C                Em 
E|-3p0-3p0-3p0---0--3p0-3p0-3p0---0-----|
B|-------------3----------------3-------|
G|--------------------------------------|
D|--------------------------------------|
A|--------------------------------------|
E|--------------------------------------|

    D                    Am    
E|--2p0--2p0--2h3p2p0--0h2--0-----------|
B|-----------------------------1--------|
G|--------------------------------------|
D|--------------------------------------|
A|--------------------------------------|
E|--------------------------------------|

Parte 2 de 3
   C                Em 
E|-3p0-3p0-3p0---0--3p0-3p0-3p0---0-----|
B|-------------3----------------3-------|
G|--------------------------------------|
D|--------------------------------------|
A|--------------------------------------|
E|--------------------------------------|

   D                 Am
E|-2p0--2p0--2h3p2p0--------------------|
B|-------------------1------------------|
G|--------------------------------------|
D|--------------------------------------|
A|--------------------------------------|
E|--------------------------------------|

Parte 3 de 3
         C                Em
E|-5--5--5p3--3-----5--5--5p3--3--------|
B|--------------------------------------|
G|--------------------------------------|
D|--------------------------------------|
A|--------------------------------------|
E|--------------------------------------|

          D                Am
E|--7--7--7p5--5-----8--7--8p7--3--2p0--|
B|--------------------------------------|
G|--------------------------------------|
D|--------------------------------------|
A|--------------------------------------|
E|--------------------------------------|
Otros videos de esta canción
    413 exhibiciones
    • Simplificar cifrado
      • ½ Tono
      • Am
      • Bbm
      • Bm
      • Cm
      • C#m
      • Dm
      • Ebm
      • Em
      • Fm
      • F#m
      • Gm
      • G#m
    • Agregar a la lista

    Afinação da cifra

    Afinador online

      Ops (: Contenido disponible solo en portugués.
      OK